Oops, an error
Loading. Please wait.

Dont Speak Tab

version 3
version 3
46,058 views 186 this week
1 commentread comment
1 2 3 4 5
excellent!
x 18
add to favorites
launch autoscroll
font size
0
reset
how to read this tab
guitar tuner
Autoscroll
slow
fast
+/-
esc
set tempo
stop
Help us to improve Ultimate-Guitar.com Take our survey!
×
Author
Artist : No Doubt
Song :  Don't Speak (Solo)

  
E|-------3--------------------------|
B|---4-6---6~-3---------4-4/8-6-8~~-|
G|-5------------3-----5-------------|
D|----------------5/6---------------|
A|----------------------------------|
E|----------------------------------|

E|-------3--------------3-4-3-4-6-4p3-----|
B|---4-6---6~-3--------4--------------6~~-|
G|-5------------3-----5-------------------|
D|----------------5/6---------------------|
A|----------------------------------------|
E|----------------------------------------|
       
E|-----8-10-11-10h11p10p8-10----8----------------------------------|
B|----8----------------------11---8-11----8------8-9-11-9h11p9-8~~-|
G|---8---------------------------------10---8-10-------------------|
D|-10--------------------------------------------------------------|
A|-----------------------------------------------------------------|
E|-----------------------------------------------------------------|

E|---------------------------------------|
B|---------------------------------------|
G|-------------------3-3h5--3\1--1-0h1p0-|
D|-------3-5---3-5-6---------------------|
A|-3h5h6-----6---------------------------|
E|---------------------------------------|
      
    
*************************
                              
h = hammer on
p = pull off
/ = slide up
\ = slide down
~ = vibrato
0 = play open

*************************
Suggest correction
What's this?
You can suggest a correction to this tab. Community and Mods will review your correction and vote to approve or reject it.
comments
print report bad tab
1 comment total.
+1 reply
giltheartist 26 wrote on June 10 2015, 05:15 am

on very last note:

0h1p*0

guest
You may want to rate the tab now too:
select rating
Please do not post tabs as comments. Select "correction" instead!