Oops, an error
Loading. Please wait.

Dont Speak Tab

version 1
version 1
477,353 views 789 this week
27 commentsread comments
1 2 3 4 5
accurate
x 59
add to favorites
launch autoscroll
font size
0
reset
how to read this tab
guitar tuner
Autoscroll
slow
fast
+/-
esc
set tempo
stop
Help us to improve Ultimate-Guitar.com Take our survey!
×
[Intro & Verse 1]

   Cm            x3    Gm      Fm        Gm7     Gm        Fm      Gm7
E||-----------------||-----------------|-----------------|-----------------|
B||-4---4---4---4---||-3---3---1---1---|-3---3---3---3---|-1---1---3---3---|
G||-5---5---5---5---||-3---3---1---1---|-3---3---3---3---|-1---1---3---3---|
D||---5---5---5---5-||---5---5---3---3-|---3---3---5---5-|---3---3---3---3-|
A||-----------------||-----------------|-----------------|-----------------|
E||-----------------||-----------------|-----------------|-----------------|

   Cm      Gm        Fm      Gm7       Gm      Cm        Fm      Gm7
E|-----------------|-----------------|-----------------|-----------------|
B|-4---4---3---3---|-1---1---3---3---|-3---3---4---4---|-1---1---3---3---|
G|-5---5---3---3---|-1---1---3---3---|-3---3---5---5---|-1---1---3---3---|
D|---5---5---5---5-|---3---3---3---3-|---5---5---5---5-|---3---3---3---3-|
A|-----------------|-----------------|-----------------|-----------------|
E|-----------------|-----------------|-----------------|-----------------|

   Cm      Gm        Fm      Gm7      Cm7(on E)A#(on E)  C
E|-----------------|-----------------|-----------------|-----------------|
B|-4---4---3---3---|-1---1---3---3---|-8---8---6---6---|-5---------------|
G|-5---5---3---3---|-1---1---3---3---|-8---8---7---7---|-5---------------|
D|---5---5---5---5-|---3---3---3---3-|---8---8---8---8-|-5---------------|
A|-----------------|-----------------|-----------------|-3---------------|
E|-----------------|-----------------|-----------------|-----------------|


[Chorus]

"Don't speak, I know just what you're sayin'..."

    Fm             A#m         D#          C              A#m
E|--8--x-8--x-8----6-x-6-x-6---6-x-6-x-6---8--x-8--x-8----6-x-6-x-6--|
B|--9--x-9--x-9----6-x-6-x-6---8-x-8-x-8---8--x-8--x-8----6-x-6-x-6--|
G|--10-x-10-x-10---6-x-6-x-6---8-x-8-x-8---9--x-9--x-9----6-x-6-x-6--|
D|--10-x-10-x-10---8-x-8-x-8---8-x-8-x-8---10-x-10-x-10---8-x-8-x-8--|
A|--8--x-8--x-8----8-x-8-x-8---6-x-6-x-6---10-x-10-x-10---8-x-8-x-8--|
E|-----------------6-x-6-x-6---------------8--x-8--x-8----6-x-6-x-6--|

    D#          Fm        C#   C                                          x2 both
E|--6-x-6-x-6---8------------------|
B|--8-x-8-x-8---9---------9----8---|
G|--8-x-8-x-8---10--------10---9---|
D|--8-x-8-x-8---10--------11---10--|
A|--6-x-6-x-6---8---------11---10--|
E|------------------------9----8---|


[Verse 2]

(Progression is the same as Verse 1)

   Cm                Gm      Fm        Gm7     Gm        Fm      Gm7
E|-----------------|-----------------|-----------------|-----------------|
B|-4---4---4---4---|-3---3---1---1---|-3---3---3---3---|-1---1---3---3---|
G|-5---5---5---5---|-3---3---1---1---|-3---3---3---3---|-1---1---3---3---|
D|---5---5---5---5-|---5---5---3---3-|---3---3---5---5-|---3---3---3---3-|
A|-----------------|-----------------|-----------------|-----------------|
E|-----------------|-----------------|-----------------|-----------------|

   Cm      Gm        Fm      Gm7       Gm      Cm        Fm      Gm7
E|-----------------|-----------------|-----------------|-----------------|
B|-4---4---3---3---|-1---1---3---3---|-3---3---4---4---|-1---1---3---3---|
G|-5---5---3---3---|-1---1---3---3---|-3---3---5---5---|-1---1---3---3---|
D|---5---5---5---5-|---3---3---3---3-|---5---5---5---5-|---3---3---3---3-|
A|-----------------|-----------------|-----------------|-----------------|
E|-----------------|-----------------|-----------------|-----------------|
   Cm      Gm        Fm      Gm7      Cm7(on E)A#(on E)  C
E|-----------------|-----------------|-----------------|-----------------|
B|-4---4---3---3---|-1---1---3---3---|-8---8---6---6---|-5---------------|
G|-5---5---3---3---|-1---1---3---3---|-8---8---7---7---|-5---------------|
D|---5---5---5---5-|---3---3---3---3-|---8---8---8---8-|-5---------------|
A|-----------------|-----------------|-----------------|-3---------------|
E|-----------------|-----------------|-----------------|-----------------|

*Second half of Verse 2 goes like: (Starts w/ "As we die...")

    Cm    Gm    Fm    A#    D#    A#    C
E|--3-3---3-3---1-1---6-6---6-6---6-6---3--|
B|--4-4---3-3---1-1---6-6---8-8---6-6---5--|
G|--5-5---3-3---1-1---7-7---8-8---7-7---5--|
D|--5-5---5-5---3-3---8-8---8-8---8-8---5--|
A|--3-3---5-5---3-3---8-8---6-6---8-8---3--|
E|--------3-3---1-1---6-6---------6-6------|


[Chorus]

"Don't speak, I know just what you're sayin'..."

    Fm             A#m         D#          C              A#m
E|--8--x-8--x-8----6-x-6-x-6---6-x-6-x-6---8--x-8--x-8----6-x-6-x-6--|
B|--9--x-9--x-9----6-x-6-x-6---8-x-8-x-8---8--x-8--x-8----6-x-6-x-6--|
G|--10-x-10-x-10---6-x-6-x-6---8-x-8-x-8---9--x-9--x-9----6-x-6-x-6--|
D|--10-x-10-x-10---8-x-8-x-8---8-x-8-x-8---10-x-10-x-10---8-x-8-x-8--|
A|--8--x-8--x-8----8-x-8-x-8---6-x-6-x-6---10-x-10-x-10---8-x-8-x-8--|
E|-----------------6-x-6-x-6---------------8--x-8--x-8----6-x-6-x-6--|

    D#          Fm        C#   C                                          x2 both
E|--6-x-6-x-6---8------------------|
B|--8-x-8-x-8---9---------9----8---|
G|--8-x-8-x-8---10--------10---9---|
D|--8-x-8-x-8---10--------11---10--|
A|--6-x-6-x-6---8---------11---10--|
E|------------------------9----8---|

*The second time, before the bridge, the chord progression changes at
the Fm to:
    Fm5  D#5 C5  G#5
E|------------------|
B|------------------|
G|--10---8---5------|
D|--10---8---5---6--|
A|--8----6---3---6--|
E|---------------4--|


[Bridge]

"It's all ending, we gotta stop pretending..."

    C#    G#    B     F#    A   C#  D#  C#5/D#5      G#
E|--4-4---4-4---2-2---2-2---5---4---6----------------4--|
B|--6-6---4-4---4-4---2-2---5---6---8----------------4--|
G|--6-6---5-5---4-4---3-3---6---6---8-----6/8--8--8--5--|
D|--6-6---6-6---4-4---4-4---7---6---8-----6/8--8--8--6--|
A|--4-4---6-6---2-2---4-4---7---4---6-----4/6--6--6--6--|
E|--------4-4---------2-2---5------------------------4--|


[Solo]

E|-----------1-3-1--------------------1-3-1--3--------1-3-1--------------|
B|--4---1--4--------3---------(1)-1/4-------------1-4--------3-----------|
G|---------------------3-0-1------------------------------------3-0--1---|
D|-----------------------------------------------------------------------|
A|-----------------------------------------------------------------------|
E|-----------------------------------------------------------------------|

E|-------------------------8---8-10-11-10-8----8-------------------------|
B|--8-9-8h9-11--9p8--------8----------------11---8-11----8------8-9-11---|
G|------------------10^----8--------------------------10---8-10----------|
D|-----------------------------------------------------------------------|
A|-----------------------------------------------------------------------|
E|-----------------------------------------------------------------------|

E|-----------------------------------------------------------------------|
B|--9h11p9-8-(11)--------------------------------------------------------|
G|---------------------------------------3-5-3---------------------------|
D|--------------------------3-5----3-5-6-------6-5h6p5-(3)---------------|
A|--------------------3/5-6-----6----------------------------------------|
E|-----------------------------------------------------------------------|


Verse 3 

(Same as Verse 1)

   Cm                Gm      Fm        Gm7     Gm        Fm      Gm7
E|-----------------|-----------------|-----------------|-----------------|
B|-4---4---4---4---|-3---3---1---1---|-3---3---3---3---|-1---1---3---3---|
G|-5---5---5---5---|-3---3---1---1---|-3---3---3---3---|-1---1---3---3---|
D|---5---5---5---5-|---5---5---3---3-|---3---3---5---5-|---3---3---3---3-|
A|-----------------|-----------------|-----------------|-----------------|
E|-----------------|-----------------|-----------------|-----------------|

   Cm      Gm        Fm      Gm7       Gm      Cm        Fm      Gm7
E|-----------------|-----------------|-----------------|-----------------|
B|-4---4---3---3---|-1---1---3---3---|-3---3---4---4---|-1---1---3---3---|
G|-5---5---3---3---|-1---1---3---3---|-3---3---5---5---|-1---1---3---3---|
D|---5---5---5---5-|---3---3---3---3-|---5---5---5---5-|---3---3---3---3-|
A|-----------------|-----------------|-----------------|-----------------|
E|-----------------|-----------------|-----------------|-----------------|
   Cm      Gm        Fm      Gm7      Cm7(on E)A#(on E)  C
E|-----------------|-----------------|-----------------|-----------------|
B|-4---4---3---3---|-1---1---3---3---|-8---8---6---6---|-5---------------|
G|-5---5---3---3---|-1---1---3---3---|-8---8---7---7---|-5---------------|
D|---5---5---5---5-|---3---3---3---3-|---8---8---8---8-|-5---------------|
A|-----------------|-----------------|-----------------|-3---------------|
E|-----------------|-----------------|-----------------|-----------------|

*Right after "I can see us dying..." (Gm7), it changes to:
    F5               A#5
E|------------------------------------|
B|------------------------------------|
G|------------------------------------|
D|--3-3-3-3-3-3-3-3--8-8-8-8-8-8-8-8--|
A|--3-3-3-3-3-3-3-3--8-8-8-8-8-8-8-8--|
E|--1-1-1-1-1-1-1-1--6-6-6-6-6-6-6-6--|


[Outro]

(Chorus is repeated w/ different lyrics)

    Fm             A#m         D#          C              A#m
E|--8--x-8--x-8----6-x-6-x-6---6-x-6-x-6---8--x-8--x-8----6-x-6-x-6--|
B|--9--x-9--x-9----6-x-6-x-6---8-x-8-x-8---8--x-8--x-8----6-x-6-x-6--|
G|--10-x-10-x-10---6-x-6-x-6---8-x-8-x-8---9--x-9--x-9----6-x-6-x-6--|
D|--10-x-10-x-10---8-x-8-x-8---8-x-8-x-8---10-x-10-x-10---8-x-8-x-8--|
A|--8--x-8--x-8----8-x-8-x-8---6-x-6-x-6---10-x-10-x-10---8-x-8-x-8--|
E|-----------------6-x-6-x-6---------------8--x-8--x-8----6-x-6-x-6--|

    D#          Fm        C#   C                                          x2 both
E|--6-x-6-x-6---8------------------|
B|--8-x-8-x-8---9---------9----8---|
G|--8-x-8-x-8---10--------10---9---|
D|--8-x-8-x-8---10--------11---10--|
A|--6-x-6-x-6---8---------11---10--|
E|------------------------9----8---|



************************************

| x    Dead note
| (n)  Ghost note
| h    Hammer-on
| p    Pull-off
| /    Slide up
| ^    Bend 

************************************
Suggest correction
comments
print report bad tab
27 comments total. Showing first comments.
0 reply
staindkid 0 wrote on February 16 2002, 12:00 am

pretty kool

0 reply
chuckster 10 wrote on February 16 2002, 12:00 am

Good tab!

0 reply
bubbles69 0 wrote on February 20 2002, 12:00 am

nice...good job!

guest
You may want to rate the tab now too:
select rating
Please do not post tabs as comments. Select "correction" instead!