Oops, an error
Loading. Please wait.

Dont Speak Tab

version 2
version 2
30,339 views 15 this week
3 commentsread comments
1 2 3 4 5
accurate
x 11
add to favorites
launch autoscroll
font size
0
reset
how to read this tab
guitar tuner
Autoscroll
slow
fast
+/-
esc
set tempo
stop
Help us to improve Ultimate-Guitar.com Take our survey!
×
Author
Intro & Verse 1:

   Cm            3X| Gm      Fm        Bb      Gm        Fm      Bb
E|-----------------|-----------------|-----------------|-----------------|
B|-4---4---4---4---|-3---3---1---1---|-3---3---3---3---|-1---1---3---3---|
G|-5---5---5---5---|-3---3---1---1---|-3---3---3---3---|-1---1---3---3---|
D|---5---5---5---5-|---5---5---3---3-|---3---3---5---5-|---3---3---3---3-|
A|-----------------|-----------------|-----------------|-----------------|
E|-----------------|-----------------|-----------------|-----------------|
   Cm      Gm        Fm      Bb        Gm      Cm        Fm      Bb
E|-----------------|-----------------|-----------------|-----------------|
B|-4---4---3---3---|-1---1---3---3---|-3---3---4---4---|-1---1---3---3---|
G|-5---5---3---3---|-1---1---3---3---|-3---3---5---5---|-1---1---3---3---|
D|---5---5---5---5-|---3---3---3---3-|---5---5---5---5-|---3---3---3---3-|
A|-----------------|-----------------|-----------------|-----------------|
E|-----------------|-----------------|-----------------|-----------------|
   Cm      Gm        Fm      Bb        Eb      Bb        C
E|-----------------|-----------------|-----------------|-----------------|
B|-4---4---3---3---|-1---1---3---3---|-8---8---6---6-6-|-5---------------|
G|-5---5---3---3---|-1---1---3---3---|-8---8---7---7-7-|-5---------------|
D|---5---5---5---5-|---3---3---3---3-|---8---8---8---8-|-5---------------|
A|-----------------|-----------------|-----------------|-----------------|
E|-----------------|-----------------|-----------------|-----------------|

Chorus:
 
    Fm    Bbm   Eb   C      Bbm  C      Fm    Bbm  C7
E|--------6--|-----------|--6----8---|-----------------| 
B|--9-----6--|--8----8---|--6----8---|--9-----6----11--| 
G|--10----6--|--8----9---|--6----9---|--10----6----9---| 
D|--10----8--|--8----10--|--8----10--|--10----8----8---| 
A|--8-----8--|--6----10--|--8----10--|--8-----8----10--| 
E|--------6--|-------8---|--6----8---|--------6----8---|

    Fm    Bbm   Eb   C      Bbm  C      Fm    Db   Eb
E|--------6--|-----------|--6----8---|-----------------| 
B|--9-----6--|--8----8---|--6----8---|--9-----6----8---| 
G|--10----6--|--8----9---|--6----9---|--10----6----8---| 
D|--10----8--|--8----10--|--8----10--|--10----6----8---| 
A|--8-----8--|--6----10--|--8----10--|--8-----4----6---| 
E|--------6--|-------8---|--6----8---|-----------------|

Verse 2:

   Cm                Gm        Fm      Bb        Gm      Fm      Bb
E|-----------------|-----------------|-----------------|-----------------|
B|-4---4---4---4---|-3---3-----1---1-|-3---3-----3---3-|-1---1---3-------|
G|-5---5---5---5---|-3---3-----1---1-|-3---3-----3---3-|-1---1---3-------|
D|---5---5---5---5-|---5---------3---|----3--------5---|---3-------------|
A|-----------------|-----------------|-----------------|-----------------|
E|-----------------|-----------------|-----------------|-----------------|

    Cm    Gm    Fm   Bb     Eb   Bb     C
E|--3-----3--|--1----1---|-----------|-----------------| 
B|--4-----3--|--1----3---|--8----6---|--5--------------| 
G|--5-----3--|--1----3---|--8----7---|--5--------------| 
D|--5-----5--|--3----3---|--8----8---|--5--------------| 
A|--3-----5--|--3----1---|--6----8---|--3--------------| 
E|--------3--|--1--------|-------6---|-----------------|

Chorus:
 
    Fm    Bbm   Eb   C      Bbm  C      Fm    Bbm7 C
E|--------6--|-----------|--6----8---|-----------------| 
B|--9-----6--|--8----8---|--6----8---|--9-----9----8---| 
G|--10----6--|--8----9---|--6----9---|--10----6----9---| 
D|--10----8--|--8----10--|--8----10--|--10----8----8---| 
A|--8-----8--|--6----10--|--8----10--|--8-----8----10--| 
E|--------6--|-------8---|--6----8---|-------------8---|

    Fm    Bbm   Eb   C      Bbm  C      Fm    Db   Eb
E|--------6--|-----------|--6----8---|-----------------| 
B|--9-----6--|--8----8---|--6----8---|-----------------| 
G|--10----6--|--8----9---|--6----9---|-----------------| 
D|--10----8--|--8----10--|--8----10--|--3--1-----------| 
A|--8-----8--|--6----10--|--8----10--|--------3--------| 
E|--------6--|-------8---|--6----8---|-----------4-----|

Bridge:

E|-4---4-4-4-4-4-4-|-4-4-4-4-4-4-4---|
B|-6---6-6-6-6-6-6-|-6-6-4-6-4-4-4---| 
G|-6---6-6-6-6-6-6-|-5-5-5-5-6-6-6---| 
D|-----------------|---------------6-| 
A|-----------------|-----------------| 
E|-----------------|-----------------|

E|-2-2-2-2-2-2-2-2-|-2---2-2-2-2-2---|
B|-4-4-4-4-4-4-4-4-|-4---2-2-2-2-2---|
G|-4-4-4-4-4-4-4-4-|-3---3-3-3-3-3---|
D|-----------------|-----------------|
A|-----------------|-----------------|
E|-----------------|-----------------|

E|-5---5-----------|-4-4--4--4-4-----|
B|-4---4-----------|-4-4--4--4-4-----|
G|-6---6-----------|-6-6--6--6-5-----|
D|-7---7-----------|-6-6--6--6-6-----|
A|-----------------|-----------------|
E|-----------------|-----------------|

Solo:
                                                                /rake
E|-------3------------|----------------|-------3------------|--/3-4-3-4-6---4p3---|
B|---4-6---6~-3-------|---4~-6/8-6~-8~-|---4-6---6~-3-------|-/4----------------6-|
G|-5------------3~----|-5--------------|-5------------3~----|/5-------------------|
D|-----------------5-6|----------------|-----------------5-6|---------------------|
A|--------------------|----------------|--------------------|---------------------|
E|--------------------|----------------|--------------------|---------------------|

       /rake
E|----/8-10-11-10h11p10-8-10----8------|----------------------------|
B|---/8----------------------11---8-11-|----8------8-9-11-9-11p9-8~-|
G|--/8---------------------------------|-10---8-10------------------|
D|-/10---------------------------------|----------------------------|
A|-------------------------------------|----------------------------|
E|-------------------------------------|----------------------------|


E|-------------------------------------|----------------|
B|-------------------------------------|----------------|
G|-------------------------------------|----------------|
D|---------------------------8-10-8----|----------------|
A|-----------8-10----8-10-11--------11-|-10h11p10~~-----|
E|---8-10-11------11-------------------|----------------|

Verse 3:

   Cm      Gm        Fm      Bb        F5      B5
E|-----------------|-----------------|-----------------|
B|-4---4---3---3---|-1---1---3---3---|-----------------|
G|-5---5---3---3---|-1---1---3---3---|---------3-------|
D|---5---5---5---5-|---3---3---3---3-|-3-------3-------|
A|-----------------|-----------------|-3-------1-------|
E|-----------------|-----------------|-1---------------|

Chorus:
 
    Fm    Bbm   Eb   C      Bbm  C      Fm    Bbm  C7
E|--------6--|-----------|--6----8---|-----------------| 
B|--9-----6--|--8----8---|--6----8---|--9-----6----11--| 
G|--10----6--|--8----9---|--6----9---|--10----6----9---| 
D|--10----8--|--8----10--|--8----10--|--10----8----8---| 
A|--8-----8--|--6----10--|--8----10--|--8-----8----10--| 
E|--------6--|-------8---|--6----8---|--------6----8---|

Suggest correction
What's this?
You can suggest a correction to this tab. Community and Mods will review your correction and vote to approve or reject it.
comments
print report bad tab
3 comments total.
0 reply
madison111 285 wrote on November 23 2008, 01:35 pm

this is absolutely awesome. definitely the best don't speak tab on here!

0 reply
east79 58 wrote on April 5 2009, 08:52 pm

Great job. Great solo

0 reply
Jessi7 58 wrote on August 31 2009, 05:25 am

Perfect tab, thank you!

guest
You may want to rate the tab now too:
select rating
Please do not post tabs as comments. Select "correction" instead!