Oops, an error
Loading. Please wait.

Dont Speak Tab

version 4
version 4
21,463 views 9 this week
3 commentsread comments
1 2 3 4 5
accurate
x 10
add to favorites
launch autoscroll
font size
0
reset
how to read this tab
guitar tuner
Autoscroll
slow
fast
+/-
esc
set tempo
stop
Help us to improve Ultimate-Guitar.com Take our survey!
×
Author
jur 0
This song was tabt by Jur

Tuning Info
#####################

normal tuning

Don't Speak
No Doubt

    1  2  3  4
e|------------------------------------------------------|
B|--4--4--4--4------------------------------------------|
G|--5--5--5--5------------------------------------------|
D|---5--5--5--5-----------------------------------------|
A|------------------------------------------------------|
E|------------------------------------------------------|
  Repeat 2x

      1  2  3  4    1  2  3  4     1  2  3  4    1  2  3  4
e|------------- ------------- ------------- --------------|
B|--4--4--4--4- --3--3--1--1- --3--3--3--3- --1--1--3--3--|
G|--5--5--4--4- --3--3--1--1- --3--3--3--3- --1--1--3--3--|
D|---5--5--5--5 ---5--5--3--3 ---3--3--5--5 ---3--3--3--3-|
A|------------- ------------- ------------- --------------|
E|------------- ------------- ------------- --------------|
    1  2  3  4    1  2  3  4    1  2  3  4
e|------------- ------------- ------------- --------------|
B|--4--4--3--3- --1--1--3--3- --3--3--4--4- --1--1--3--3--|
G|--5--5--3--3- --1--1--3--3- --3--3--5--5- --1--1--3--3--|
D|---5--5--5--5 ---3--3--3--3 ---5--5--5--5 ---3--3--3--3-|
A|------------- ------------- ------------- --------------|
E|------------- ------------- ------------- --------------|
    1  2  3  4    1  2  3  4    1  2  3  4    1  2  3  4
e|------------- ------------- ------------- -------------|
B|--4--4--3--3- --1--1--3--3- --8--8--3--3- --3/5--------|
G|--5--5--3--3- --1--1--3--3- --8--8--3--3- --3/5--------|
D|---5--5--5--5 ---3--3--3--3 ---8--8--3--3 --3/5--------|
A|------------- ------------- ------------- -------------|
E|------------- ------------- ------------- -------------|

  refrein
    1  2  3  4    1  2  3  4    1  2  3  4    1  2  3  4
e|--8---8-8-8-- --6---6-6-6-- --6---6-6-6-- --8---8-8-8--|
B|--9---9-9-9-- --6---6-6-6-- --8---8-8-8-- --8---8-8-8--|
G|--10--101010- --6---6-6-6-- --8---8-8-8-- --9---9-9-9--|
D|--10--101010- --8---8-8-8-- --8---8-8-8-- --10--101010-|
A|--8---8-8-8-  --8---8-8-8-- --6---6-6-6-- --10--101010-|
E|--8---8-8-8-- --6---6-6-6-- --6---6-6-6-- --8---8-8-8--|

    1  2  3  4    1  2  3  4    1  2  3  4    1  2  3  4
e|--6---6-6-6-- --8---8-8-8-- --8---8-8-8-- --6--8---------|
B|--6---6-6-6-- --8---8-8-8-- --9---9-9-9-- --6--8---------|
G|--6---6-6-6-- --9---9-9-9-- --10--101010- --6--9---------|
D|--8---8-8-8-- --10--101010- --10--101010- --8--10--------|
A|--8---8-8-8-- --10--101010- --8---8-8-8-- --8--10--------|
E|--6---6-6-6-- --8---8-8-8-- --8---8-8-8-- --6--8---------|

    1  2  3  4    1  2  3  4    1  2  3  4    1  2  3  4
e|--8---8-8-8-- --6---6-6-6-- --6---6-6-6-- --8---8-8-8--|
B|--9---9-9-9-- --6---6-6-6-- --8---8-8-8-- --8---8-8-8--|
G|--10--101010- --6---6-6-6-- --8---8-8-8-- --9---9-9-9--|
D|--10--101010- --8---8-8-8-- --8---8-8-8-- --10--101010-|
A|--8---8-8-8-  --8---8-8-8-- --6---6-6-6-- --10--101010-|
E|--8---8-8-8-- --6---6-6-6-- --6---6-6-6-- --8---8-8-8--|

    1  2  3  4    1  2  3  4    1  2  3  4    1  2  3  4
e|--6---6-6-6-- --8---8-8-8-- --8---8-8-8-- --6--6-------|
B|--6---6-6-6-- --8---8-8-8-- --9---9-9-9-- --6--8-------|
G|--6---6-6-6-- --9---9-9-9-- --10--101010- --6--8-------|
D|--8---8-8-8-- --10--101010- --10--101010- --8--8-------|
A|--8---8-8-8-- --10--101010- --8---8-8-8-- --8--6-------|
E|--6---6-6-6-- --8---8-8-8-- --8---8-8-8-- --6--6-------|

      1  2  3  4    1  2  3  4    1  2  3  4    1  2  3  4
e|------------- ------------- ------------- --------------|
B|--4--4--4--4- --3--3--1--1- --3--3--3--3- --1--1--3--3--|
G|--5--5--5--5- --3--3--1--1- --3--3--3--3- --1--1--3--3--|
D|---5--5--5--5 ---5--5--3--3 ---3--3--5--5 ---3--3--3--3-|
A|------------- ------------- ------------- --------------|
E|------------- ------------- ------------- --------------|


    1  2  3  4    1  2  3  4    1  2  3  4    1  2  3  4
e|--3--3--3-3-- --1--1--1-1-- --6--6--1-1-- --3----------|
B|--3--3--3-3-- --1--1--1-1-- --6--6--1-1-- --3----------|
G|--5--5--3-3-- --1--1--3-3-- --8--8--3-3-- --5----------|
D|--5--5--5-5-- --3--3--3-3-- --8--8--3-3-- --5----------|
A|--3--3--5-5-- --3--3--1-1-- --6--6--1-1-- --3----------|
E|--3--3--3-3-- --1--1--1-1-- --6--6--1-1-- --3----------|
  overdrive on                                overdrive off

     1  2  3  4    1  2  3  4    1  2  3  4    1  2  3  4
e|--8---8-8-8-- --6---6-6-6-- --6---6-6-6-- --8---8-8-8--|
B|--9---9-9-9-- --6---6-6-6-- --8---8-8-8-- --8---8-8-8--|
G|--10--101010- --6---6-6-6-- --8---8-8-8-- --9---9-9-9--|
D|--10--101010- --8---8-8-8-- --8---8-8-8-- --10--101010-|
A|--8---8-8-8-  --8---8-8-8-- --6---6-6-6-- --10--101010-|
E|--8---8-8-8-- --6---6-6-6-- --6---6-6-6-- --8---8-8-8--|

    1  2  3  4    1  2  3  4    1  2  3  4    1  2  3  4
e|--6---6-6-6-- --8---8-8-8-- --8---8-8-8-- --6--8---------|
B|--6---6-6-6-- --8---8-8-8-- --9---9-9-9-- --6--8---------|
G|--6---6-6-6-- --9---9-9-9-- --10--101010- --6--9---------|
D|--8---8-8-8-- --10--101010- --10--101010- --8--10--------|
A|--8---8-8-8-- --10--101010- --8---8-8-8-- --8--10--------|
E|--6---6-6-6-- --8---8-8-8-- --8---8-8-8-- --6--8---------|

    1  2  3  4    1  2  3  4    1  2  3  4    1  2  3  4
e|--8---8-8-8-- --6---6-6-6-- --6---6-6-6-- --8---8-8-8--|
B|--9---9-9-9-- --6---6-6-6-- --8---8-8-8-- --8---8-8-8--|
G|--10--101010- --6---6-6-6-- --8---8-8-8-- --9---9-9-9--|
D|--10--101010- --8---8-8-8-- --8---8-8-8-- --10--101010-|
A|--8---8-8-8-  --8---8-8-8-- --6---6-6-6-- --10--101010-|
E|--8---8-8-8-- --6---6-6-6-- --6---6-6-6-- --8---8-8-8--|

    1  2  3  4    1  2  3  4    1  2  3  4    1  2  3  4
e|--6---6-6-6-- --8---8-8-8-- --8---8-8-8-- -------------|
B|--6---6-6-6-- --8---8-8-8-- --9---9-9-9-- -------------|
G|--6---6-6-6-- --9---9-9-9-- --10--101010- --10-8--5----|
D|--8---8-8-8-- --10--101010- --10--101010- --10-8--5--6-|
A|--8---8-8-8-- --10--101010- --8---8-8-8-- --8--6--3--6-|
E|--6---6-6-6-- --8---8-8-8-- --8---8-8-8-- -----------4-|

    1  2  3  4    1  2  3  4    1  2  3  4
e|--44-44-22-22- -5--4--6---- ----------4--|
B|--66-44-44-22- -5--6--8---- ----------4--|
G|--66-55-44-33- -6--6--8---- --6/8-8-8-5--|
D|--66-66-44-44- -7--6--8---- --6/8-8-8-6--|
A|--44-66-22-44- -7--4--6---- --4/6-6-6-6--|
E|-----44----22- -5---------- ----------4--|

  solo

e|------1-3-1---------------3-1-3-------1-3-1-------------|
B|-1--4--------3-------1--4---------1--4--------3---------|
G|---------------3-0-1----------------------------3-0--1--|
D|--------------------------------------------------------|
A|--------------------------------------------------------|
E|--------------------------------------------------------|

e|----------------------8-----10-11-10-11-8-10----8-------|
B|-8-9-8h9-11-9p8-------8----------------------11---8--11-|
G|----------------10*---8---------------------------------|
D|--------------------------------------------------------|
A|--------------------------------------------------------|
E|--------------------------------------------------------|

e|--------------------------------------------------------|
B|----8------8-9-11-9p11h9--------------------------------|
G|-10---8-10---------------------------------3-5-3--------|
D|--------------------------------3-5--3-5-6-------6-5p6h5|
A|--------------------------3p5/6-----6-------------------|
E|--------------------------------------------------------|

    1  2  3  4    1  2  3  4    1  2  3  4    1  2  3  4
e|------------- ------------- ------------- -------------|
B|--4--4--3--3- --1--1--3--3- ------------- -------------|
G|--5--5--3--3- --1--1--3--3- ------------- -------------|
D|---5--5--5--5 ---3--3--3--3 ---333333333- ---888888888-|
A|------------- ------------- ---333333333- ---888888888-|
E|------------- ------------- ---111111111- ---666666666-|

  End

   1  2  3  4    1  2  3  4    1  2  3  4    1  2  3  4
e|--8---8-8-8-- --6---6-6-6-- --6---6-6-6-- --8---8-8-8--|
B|--9---9-9-9-- --6---6-6-6-- --8---8-8-8-- --8---8-8-8--|
G|--10--101010- --6---6-6-6-- --8---8-8-8-- --9---9-9-9--|
D|--10--101010- --8---8-8-8-- --8---8-8-8-- --10--101010-|
A|--8---8-8-8-  --8---8-8-8-- --6---6-6-6-- --10--101010-|
E|--8---8-8-8-- --6---6-6-6-- --6---6-6-6-- --8---8-8-8--|

    1  2  3  4    1  2  3  4    1  2  3  4    1  2  3  4
e|--6---6-6-6-- --8---8-8-8-- --8---8-8-8-- --6--8---------|
B|--6---6-6-6-- --8---8-8-8-- --9---9-9-9-- --6--8---------|
G|--6---6-6-6-- --9---9-9-9-- --10--101010- --6--9---------|
D|--8---8-8-8-- --10--101010- --10--101010- --8--10--------|
A|--8---8-8-8-- --10--101010- --8---8-8-8-- --8--10--------|
E|--6---6-6-6-- --8---8-8-8-- --8---8-8-8-- --6--8---------|

    1  2  3  4    1  2  3  4    1  2  3  4    1  2  3  4
e|--8---8-8-8-- --6---6-6-6-- --6---6-6-6-- --8---8-8-8--|
B|--9---9-9-9-- --6---6-6-6-- --8---8-8-8-- --8---8-8-8--|
G|--10--101010- --6---6-6-6-- --8---8-8-8-- --9---9-9-9--|
D|--10--101010- --8---8-8-8-- --8---8-8-8-- --10--101010-|
A|--8---8-8-8-  --8---8-8-8-- --6---6-6-6-- --10--101010-|
E|--8---8-8-8-- --6---6-6-6-- --6---6-6-6-- --8---8-8-8--|

    1  2  3  4    1  2  3  4    1  2  3  4    1  2  3  4
e|--6---6-6-6-- --8---8-8-8-- --8---8-8-8-- --6--6---------|
B|--6---6-6-6-- --8---8-8-8-- --9---9-9-9-- --6--6---------|
G|--6---6-6-6-- --9---9-9-9-- --10--101010- --6--8---------|
D|--8---8-8-8-- --10--101010- --10--101010- --8--8---------|
A|--8---8-8-8-- --10--101010- --8---8-8-8-- --8--8---------|
E|--6---6-6-6-- --8---8-8-8-- --8---8-8-8-- --6--6---------|
   Play end 4x
Suggest correction
comments
print report bad tab
3 comments total.
0 reply
scottish_scotty 25 wrote on July 8 2004, 12:00 am

the intro bit seems right. but is the whole song really that long?

-1 reply
wEiRdDeHi 100 wrote on December 9 2004, 12:00 am

theres no such thing as a "Don't Speak" album. The album is called "Tragic Kingdom".

0 reply
zoltan 10 wrote on May 28 2007, 06:54 am

which chords are played upon the solo?

guest
You may want to rate the tab now too:
select rating
Wanna post a correction for this tab? Suggest correction