Oops, an error
Loading. Please wait.

Ex-Girlfriend Tab

version 2
version 2

Whole song

Interactive

2,370 views 1 this week
2 commentsread comments
1 2 3 4 5
please rate
add to favorites
launch autoscroll
font size
0
reset
how to read this tab
guitar tuner
Autoscroll
slow
fast
+/-
esc
set tempo
stop
Help us to improve Ultimate-Guitar.com Take our survey!
×
Author
Intro:

e|-8--7-5-3-2-0-----|
B|-10-8-7-5-4-1-4-1-|
G|--------------4-2-|x2
D|------------------|
A|------------------|
E|------------------|

Then:
(this is the chorus riff)
e|-------------------------------------------|
B|-------------------------------------------|
G|-------------------------------------------|x2
D|-------------------------------------------|
A|------2222-3333-5555------3333-22-00-------|
E|-0000----------------2222------------33-22-|

Verse:

e|-7~~~~~~~-8~~~~~~~-5~~~~~~-5-2~~~-3---5-|
B|-8~~~~~~~-10~~~~~~-7~~~~~~-7-4~~~-5---7-|
G|----------------------------------------|
D|----------------------------------------|
A|----------------------------------------|
E|----------------------------------------|

e|-7~~~~~~~-8~~~~~~~-8--7-5-3-2-0-----|
B|-8~~~~~~~-10~~~~~~-10-8-7-5-4-1-4-1-|
G|--------------------------------4-2-|
D|------------------------------------|
A|------------------------------------|
E|------------------------------------|

Chorus: same as second part of intro except double(x4 instead of x2)

Bridge:

e|-------------------------------|
B|-5-------5-------4-------4-----|
G|-----5-------5-------4-------4-|
D|-------------------------------|
A|-------------------------------|
E|-------------------------------|

Then first part of intro

Verse

Chorus:(x4)

Bridge x2

Interlude
|----------------------------------------|
|----------------------------------------|
|----------------------------------------|etc.
|----------------------------------------|
|----------------------------------------|
|-12-12-12-12-12-12-12-12-12-12-12-12-12-|

Then

|--------------------------------|
|--------------------------------|
|-9~~~~~~~~~~~~-9b~~~~~~~~~~~~~~-|
|-9~~~~~~~~~~~~-9b~~~~~~~~~~~~~~-|
|--------------------------------|
|--------------------------------|

|----------------------------------|
|-5---------5------5---------4-----|
|------4------5----------4-----4---|x2
|---------------5----------------4-|
|----------------------------------|
|----------------------------------|
Then the first part of intro

Chorus(x4)

Outro:
|-------------------------------------------------------------------|
|-5---------5---------4-----------4-----------5------------5--------|
|------5---------5----------4-----------4-----------5-------------5-|
|-------------------------------------------------------------------|
|-------------------------------------------------------------------|
|-------------------------------------------------------------------|
Suggest correction
What's this?
You can suggest a correction to this tab. Community and Mods will review your correction and vote to approve or reject it.
comments
We did not receive enough feedback on this tab! Please rate:
print report bad tab
1 2 3 4 5
2 comments total.
0 reply
NDman 71 wrote on February 13 2008, 01:54 am

The chorus actually goes:
|------------------------------------------|
|------------------------------------------|
|------------------------------------------|x4
|------------------------------------------|
|------2222-33333333------3333-22-33-22-33-|
|-0000---------------2222------------------|

0 reply
NDman 71 wrote on June 24 2008, 05:16 am

OK THIS TAB IS CRAP!!!!!!! AND IT'S MY TAB!!!!!

guest
You may want to rate the tab now too:
select rating
Please do not post tabs as comments. Select "correction" instead!