Oops, an error
Loading. Please wait.

Hella Good Tab

version 1
version 1

Whole song

Interactive

39,013 views 39 this week
2 commentsread comments
1 2 3 4 5
x 14
add to favorites
launch autoscroll
font size
0
reset
how to read this tab
guitar tuner
Autoscroll
slow
fast
+/-
esc
set tempo
stop
Help us to improve Ultimate-Guitar.com Take our survey!
×
There's distorted bass as an intro, but I can make sound alright (well, kinda)
if I just crank down the treble on my guitar.

[Intro]

  (Bass)
e||----------------------|
B||----------------------|
G||----------------------| x2
D||----------------------|
A||----------------------|
E||-3x3x3-4---4x4x4-3----|

[Verse]

"The waves keep on crashing on me for some reason"

Guitar
e|-------------------|
B|-15x15x15-16-------|
G|-12x12x12-13-------|
D|-12x12x12-13-------|
A|-------------------|
E|-------------------|

"But your love keeps on coming like a thunderbolt
Come here a little closer
Cause I wanna see you baby, real close up"

[Chorus]

"You've got me feeling hella good
So let's just keep on dancing
You hold me like you should
So I'm gonna keep on dancing"

  (Bass)
e||----------------------|
B||----------------------|
G||----------------------|
D||----------------------|
A||----------------------|
E||-3x3x3-4---4-4-3------|

  (Bass)
e||-------------------------|
B||-------------------------|
G||-------------------------|
D||-------------------------|
A||-----------4-2-4-4-2-----|
E||-3x3x3-4-------------4-3-|


[Verse]

"Your performance deserving a standing ovation"

Guitar
e|-------------------|
B|-15x15x15-16-------|
G|-12x12x12-13-------|
D|-12x12x12-13-------|
A|-------------------|
E|-------------------|

"And who would have thought it'd be the two of us
So don't wake me if I'm dreaming
'Cause I'm in the mood come on and give it up


[Chorus]

"You've got me feeling hella good
So let's just keep on dancing
You hold me like you should
So I'm gonna keep on dancing"

  (Bass)
e||----------------------|
B||----------------------|
G||----------------------|
D||----------------------|
A||----------------------|
E||-3x3x3-4---4-4-3------|

  (Bass)
e||-------------------------|
B||-------------------------|
G||-------------------------|
D||-------------------------|
A||-----------4-2-4-4-2-----|
E||-3x3x3-4-------------4-3-|


[Solo]

e|----------------------------------------------------------------|
B|-13-15-13p11h13-11---------------11----13-------9-8-9-11-9-8----|
G|-------------------12-12-10---10----12----12--------------------|
D|----------------------------------------------------------------|
A|----------------------------------------------------------------|
E|----------------------------------------------------------------|


e|-----------------------------|
B|-13-15-13p11h13-11-----------|
G|-------------------12-12-10--|
D|-----------------------------|
A|-----------------------------|
E|-----------------------------|


[Chorus]

"You've got me feeling hella good
So let's just keep on dancing
You hold me like you should
So I'm gonna keep on dancing"

  (Bass)
e||----------------------|
B||----------------------|
G||----------------------|
D||----------------------|
A||----------------------|
E||-3x3x3-4---4-4-3------|

  (Bass)
e||-------------------------|
B||-------------------------|
G||-------------------------|
D||-------------------------|
A||-----------4-2-4-4-2-----|
E||-3x3x3-4-------------4-3-|

That's pretty much my take on Hella Good, so enjoy!

************************************

| x  Dead note
| h  Hammer-on
| p  Pull-off

************************************
Suggest correction
comments
print report bad tab
2 comments total.
0 reply
RaTm4ever 10 Sep 05, 2002 12:00 AM

dude. you got it, this may not be exact but youve got really close, this is one of the best tabs i've seen on ug.

0 reply
griff1987 55 Apr 16, 2004 12:00 AM

this song is hella good

guest
You may want to rate the tab now too:
select rating
Wanna post a correction for this tab? Suggest correction