Oops, an error
Loading. Please wait.

Hella Good Bass Tab

version 2
version 2

Whole song

Interactive

13,470 views 9 this week
2 commentsread comments
1 2 3 4 5
x 3
add to favorites
launch autoscroll
font size
0
reset
guitar tuner
Autoscroll
slow
fast
+/-
esc
set tempo
stop
Help us to improve Ultimate-Guitar.com Take our survey!
×
Author
Difficulty
novice
----------------------------------------------------------------------------
			     Hella Good - No Doubt
----------------------------------------------------------------------------

Timing: 4/4
Tuning: Standard

The instrument in the choruses, bridges and outro is a synth with an overdrive effect. 
a bass. To replicate it, add overdrive in these bits of the song.

  Intro
G|----------------|----------------|----------------|
D|----|REST|------|----|REST|------|----|REST|------|
A|----|REST|------|----|REST|------|----|REST|------|
E|----------------|----------------|----------------|

T|1+2+3+4+1+2+3+4+|1+2+3+4+1+2+3+4+|1+2+3+4+1+2+3+4+|


G|----------------|----------------|----------------|
D|------------5\--|----------------|----------------|
A|----------------|----------------|----------------|
E|----------------|3-X3-X3-4-------|4-X4-X4-3-------|

T|1+2+3+4+1+2+3+4+|1+2+3+4+1+2+3+4+|1+2+3+4+1+2+3+4+|

                                    Verse 1
G|----------------|----------------|----------------|
D|----------------|------------5\--|----|REST|------|
A|----------------|----------------|----|REST|------|
E|3-X3-X3-4-------|4-X4-X4-3-------|----------------|

T|1+2+3+4+1+2+3+4+|1+2+3+4+1+2+3+4+|1+2+3+4+1+2+3+4+|


G|----------------|----------------|----------------|
D|----|REST|------|----------------|----------------|
A|----|REST|------|----------------|----------------|
E|----------------|3-X3-X3-4-------|4-X4-X4-3-------|

T|1+2+3+4+1+2+3+4+|1+2+3+4+1+2+3+4+|1+2+3+4+1+2+3+4+|


G|----------------|----------------|----------------|
D|----|REST|------|------------5\--|----------------|
A|----|REST|------|----------------|----------------|
E|----------------|----------------|3-X3-X3-4-------|

T|1+2+3+4+1+2+3+4+|1+2+3+4+1+2+3+4+|1+2+3+4+1+2+3+4+|


G|----------------|----------------|----------------|
D|----------------|----------------|----------------|
A|----------------|----------------|----------------|
E|4-X4-X4-3-------|3-X3-X3-4-------|4-X4-X4-3-------|

T|1+2+3+4+1+2+3+4+|1+2+3+4+1+2+3+4+|1+2+3+4+1+2+3+4+|


G|----------------|----------------|----------------|
D|----------------|----------------|----|REST|------|
A|----------------|----------------|----|REST|------|
E|3-X3-X3-4-------|4-X4-X4-3-------|----------------|

T|1+2+3+4+1+2+3+4+|1+2+3+4+1+2+3+4+|1+2+3+4+1+2+3+4+|


G|----------------|----------------|----------------|
D|----|REST|------|----------------|----------------|
A|----|REST|------|----------------|----------------|
E|----------------|3-X3-X3-4-------|4-X4-X4-3-------|

T|1+2+3+4+1+2+3+4+|1+2+3+4+1+2+3+4+|1+2+3+4+1+2+3+4+|

  Chorus 1
G|----------------|----------------|----------------|
D|----------------|----------------|----------------|
A|----------------|----------------|--------------42|
E|3-X3-X3-4-------|--44--4-3------2|3-3---3-4-------|

T|1+2+3+4+1+2+3+4+|1+2+3+4+1+2+3+4+|1+2+3+4+1+2+3+4+|

G|----------------|----------------|----------------|
D|----------------|----------------|----------------|
A|4-4-2-----------|----------------|----------------|
E|------4-3-------|3-X3-X3-4-------|--44--4-3------2|

T|1+2+3+4+1+2+3+4+|1+2+3+4+1+2+3+4+|1+2+3+4+1+2+3+4+|
                                    Verse 2
G|----------------|----------------|----------------|
D|----------------|----------------|----|REST|------|
A|--------------42|4-4-2-----------|----|REST|------|
E|3-3---3-4-------|------4-3-------|----------------|

T|1+2+3+4+1+2+3+4+|1+2+3+4+1+2+3+4+|1+2+3+4+1+2+3+4+|


G|----------------|----------------|----------------|
D|----|REST|------|----------------|----------------|
A|----|REST|------|----------------|----------------|
E|----------------|3-X3-X3-4-------|4-X4-X4-3-------|

T|1+2+3+4+1+2+3+4+|1+2+3+4+1+2+3+4+|1+2+3+4+1+2+3+4+|


G|----------------|----------------|----------------|
D|----|REST|------|------------5\--|----------------|
A|----|REST|------|----------------|----------------|
E|----------------|----------------|3-X3-X3-4-------|

T|1+2+3+4+1+2+3+4+|1+2+3+4+1+2+3+4+|1+2+3+4+1+2+3+4+|


G|----------------|----------------|----------------|
D|----------------|----------------|----------------|
A|----------------|----------------|----------------|
E|4-X4-X4-3-------|3-X3-X3-4-------|4-X4-X4-3-------|

T|1+2+3+4+1+2+3+4+|1+2+3+4+1+2+3+4+|1+2+3+4+1+2+3+4+|


G|----------------|----------------|----------------|
D|----------------|----------------|----|REST|------|
A|----------------|----------------|----|REST|------|
E|3-X3-X3-4-------|4-X4-X4-3-------|----------------|

T|1+2+3+4+1+2+3+4+|1+2+3+4+1+2+3+4+|1+2+3+4+1+2+3+4+|


G|----------------|----------------|----------------|
D|------------5\--|----------------|----------------|
A|----------------|----------------|----------------|
E|----------------|3-X3-X3-4-------|4-X4-X4-3-------|

T|1+2+3+4+1+2+3+4+|1+2+3+4+1+2+3+4+|1+2+3+4+1+2+3+4+|

  Chorus 2
G|----------------|----------------|----------------|
D|----------------|----------------|----------------|
A|----------------|----------------|--------------42|
E|3-X3-X3-4-------|--44--4-3------2|3-3---3-4-------|

T|1+2+3+4+1+2+3+4+|1+2+3+4+1+2+3+4+|1+2+3+4+1+2+3+4+|


G|----------------|----------------|----------------|
D|----------------|----------------|----------------|
A|4-4-2-----------|----------------|----------------|
E|------4-3-------|3-X3-X3-4-------|--44--4-3------2|

T|1+2+3+4+1+2+3+4+|1+2+3+4+1+2+3+4+|1+2+3+4+1+2+3+4+|

                                    Chorus 3
G|----------------|----------------|----------------|
D|----------------|----------------|----------------|
A|--------------42|4-4-2-----------|----------------|
E|3-3---3-4-------|------4-3-------|3-X3-X3-4-------|

T|1+2+3+4+1+2+3+4+|1+2+3+4+1+2+3+4+|1+2+3+4+1+2+3+4+|


G|----------------|----------------|----------------|
D|----------------|----------------|----------------|
A|----------------|--------------42|4-4-2-----------|
E|--44--4-3------2|3-3---3-4-------|------4-3-------|

T|1+2+3+4+1+2+3+4+|1+2+3+4+1+2+3+4+|1+2+3+4+1+2+3+4+|


G|----------------|----------------|----------------|
D|----------------|----------------|----------------|
A|----------------|----------------|--------------42|
E|3-X3-X3-4-------|--44--4-3------2|3-3---3-4-------|

T|1+2+3+4+1+2+3+4+|1+2+3+4+1+2+3+4+|1+2+3+4+1+2+3+4+|

                   Middle 8
G|----------------|----------------|----------------|
D|----------------|----------------|-------/5---3---|
A|4-4-2-----------|6-----6---------|----------------|
E|------4-3-------|--------------4-|6--6--6---------|

T|1+2+3+4+1+2+3+4+|1+2+3+4+1+2+3+4+|1+2+3+4+1+2+3+4+|


G|----------------|----------------|----------------|
D|----------------|----------------|----------------|
A|----------------|----------------|6-----6---------|
E|3--3--3---------|4--4--4---------|--------------4-|

T|1+2+3+4+1+2+3+4+|1+2+3+4+1+2+3+4+|1+2+3+4+1+2+3+4+|


G|----------3-----|----------------|----------------|
D|------5-----5-3-|----------------|------------6\--|
A|----------------|----------------|----------------|
E|6--6------------|3--3--3---------|4--4--4---------|

T|1+2+3+4+1+2+3+4+|1+2+3+4+1+2+3+4+|1+2+3+4+1+2+3+4+|

  Bridge 1
G|----------------|----------------|----------------|
D|----|REST|------|----|REST|------|----|REST|------|
A|----|REST|------|----|REST|------|----|REST|------|
E|----------------|----------------|----------------|

T|1+2+3+4+1+2+3+4+|1+2+3+4+1+2+3+4+|1+2+3+4+1+2+3+4+|


G|----------------|----------------|----------------|
D|----|REST|------|----|REST|------|----|REST|------|
A|----|REST|------|----|REST|------|----|REST|------|
E|----------------|----------------|----------------|

T|1+2+3+4+1+2+3+4+|1+2+3+4+1+2+3+4+|1+2+3+4+1+2+3+4+|

                                    Chorus 4
G|----------------|----------------|----------------|
D|----|REST|------|----|REST|------|----------------|
A|----|REST|------|----|REST|------|----------------|
E|----------------|----------------|3-X3-X3-4-------|

T|1+2+3+4+1+2+3+4+|1+2+3+4+1+2+3+4+|1+2+3+4+1+2+3+4+|


G|----------------|----------------|----------------|
D|----------------|----------------|----------------|
A|----------------|--------------42|4-4-2-----------|
E|--44--4-3------2|3-3---3-4-------|------4-3-------|

T|1+2+3+4+1+2+3+4+|1+2+3+4+1+2+3+4+|1+2+3+4+1+2+3+4+|


G|----------------|----------------|----------------|
D|----------------|----------------|----------------|
A|----------------|----------------|--------------42|
E|3-X3-X3-4-------|--44--4-3------2|3-3---3-4-------|

T|1+2+3+4+1+2+3+4+|1+2+3+4+1+2+3+4+|1+2+3+4+1+2+3+4+|

                   Chorus 5
G|----------------|----------------|----------------|
D|----------------|----------------|----------------|
A|4-4-2-----------|----------------|----------------|
E|------4-3-------|3-X3-X3-4-------|--44--4-3------2|

T|1+2+3+4+1+2+3+4+|1+2+3+4+1+2+3+4+|1+2+3+4+1+2+3+4+|


G|----------------|----------------|----------------|
D|----------------|----------------|----------------|
A|--------------42|4-4-2-----------|----------------|
E|3-3---3-4-------|------4-3-------|3-X3-X3-4-------|

T|1+2+3+4+1+2+3+4+|1+2+3+4+1+2+3+4+|1+2+3+4+1+2+3+4+|


G|----------------|----------------|----------------|
D|----------------|----------------|----------------|
A|----------------|--------------42|4-4-2-----------|
E|--44--4-3------2|3-3---3-4-------|------4-3-------|

T|1+2+3+4+1+2+3+4+|1+2+3+4+1+2+3+4+|1+2+3+4+1+2+3+4+|

  Bridge 2
G|----------------|----------------|----------------|
D|----|REST|------|----|REST|------|----|REST|------|
A|----|REST|------|----|REST|------|----|REST|------|
E|----------------|----------------|----------------|

T|1+2+3+4+1+2+3+4+|1+2+3+4+1+2+3+4+|1+2+3+4+1+2+3+4+|


G|----------------|----------------|----------------|
D|----|REST|------|----|REST|------|----|REST|------|
A|----|REST|------|----|REST|------|----|REST|------|
E|----------------|----------------|----------------|

T|1+2+3+4+1+2+3+4+|1+2+3+4+1+2+3+4+|1+2+3+4+1+2+3+4+|

                                    Chorus 6
G|----------------|----------------|----------------|
D|----|REST|------|----|REST|------|----------------|
A|----|REST|------|----|REST|------|----------------|
E|----------------|----------------|3-X3-X3-4-------|

T|1+2+3+4+1+2+3+4+|1+2+3+4+1+2+3+4+|1+2+3+4+1+2+3+4+|


G|----------------|----------------|----------------|
D|----------------|----------------|----------------|
A|----------------|--------------42|4-4-2-----------|
E|--44--4-3------2|3-3---3-4-------|------4-3-------|

T|1+2+3+4+1+2+3+4+|1+2+3+4+1+2+3+4+|1+2+3+4+1+2+3+4+|


G|----------------|----------------|----------------|
D|----------------|----------------|----------------|
A|----------------|----------------|--------------42|
E|3-X3-X3-4-------|--44--4-3------2|3-3---3-4-------|

T|1+2+3+4+1+2+3+4+|1+2+3+4+1+2+3+4+|1+2+3+4+1+2+3+4+|

                   Outro
G|----------------|----------------|----------------|
D|----------------|----|REST|------|----|REST|------|
A|4-4-2-----------|----|REST|------|----|REST|------|
E|------4-3-------|----------------|----------------|

T|1+2+3+4+1+2+3+4+|1+2+3+4+1+2+3+4+|1+2+3+4+1+2+3+4+|


G|----------------|----------------|
D|----|REST|------|----|REST|------|
A|----|REST|------|----|REST|------|
E|----------------|----------------|

T|1+2+3+4+1+2+3+4+|1+2+3+4+1+2+3+4+|

(The 'T' just means timing and the '1+2+3+4+'s are semiquavers)

Cheers. Please Rate.

| /  slide up
| \  slide down
| h  hammer-on
| p  pull-off
| ~  vibrato
| +  harmonic
| x  Mute note
============================================================================
Suggest correction
Give kudos to tab author, rate the tab!
1 2 3 4 5
comments
print report bad tab
2 comments total.
0 reply
Jasper7979 51 Sep 20, 2007 01:07 PM

Confusing

0 reply
Smackenbob 30 Jun 20, 2009 11:29 PM

dude the INTRO IS ALL BASS

guest
You may want to rate the tab now too:
select rating
Wanna post a correction for this tab? Suggest correction