Oops, an error
Loading. Please wait.

Hella Good Tab

version 3
version 3

Whole song

Interactive

24,169 views 36 this week
1 commentread comment
1 2 3 4 5
x 11
add to favorites
launch autoscroll
font size
0
reset
how to read this tab
guitar tuner
backing track
0:00
0:00
×
Best way to learn
"Hella Good"
Autoscroll
slow
fast
+/-
esc
set tempo
stop
Drum Intro

 At about (0:08)[start intro]
e|------------------------------------------------------|
B|------------------------------------------------------|
G|------------------------------------------------------|
D|------------------------------------------------------|  2x
A|------------------------------------------------------|
E|---3-3-3-0-3-4---4-4-4-0-4-3--------------------------|

(The waves keep on crashing on me for some reason)
e|----10-10-10-10-10-11----11-11-11-11-11-10------------|
B|----8--8--8--8--8--9-----9--9--9--9--9--8-------------|
G|----7--7--7--7--7--8-----8--8--8--8--8--9-------------|
D|------------------------------------------------------|
A|------------------------------------------------------|
E|------------------------------------------------------|

(But your love keeps on coming like a thunderbolt)
e|----10-10-10-10-10-11----11-11-11-11-11-10------------|
B|----8--8--8--8--8--9-----9--9--9--9--9--8-------------|
G|----7--7--7--7--7--8-----8--8--8--8--8--9-------------|
D|------------------------------------------------------|
A|------------------------------------------------------|
E|------------------------------------------------------|

(Come here a little closer)
e|----10-10-10-10-10-11----11-11-11-11-11-10------------|
B|----8--8--8--8--8--9-----9--9--9--9--9--8-------------|
G|----7--7--7--7--7--8-----8--8--8--8--8--9-------------|
D|------------------------------------------------------|
A|------------------------------------------------------|
E|------------------------------------------------------|

('Cause I wanna see you, baby, real close up)
e|----10-10-10-10-10-11----11-11-11-11-11-10------------|
B|----8--8--8--8--8--9-----9--9--9--9--9--8-------------|
G|----7--7--7--7--7--8-----8--8--8--8--8--9-------------|
D|------------------------------------------------------|
A|------------------------------------------------------|
E|------------------------------------------------------|

(CHORUS)
 While Gwen sings play
e|------------------------------------------------------|
B|------------------------------------------------------|
G|------------------------------------------------------|(2x)
D|------------------------------------------------------|
A|------------------------------4-2-4-4-2---------------|
E|--3-3-3-4---4-4-3---3-3-3-4-------------4-3-----------|

You've got me feeling hella good
So let's just keep on dancing
You hold me like you should
So I'm gonna keep on dancing

[VERSE 2](same guitar pattern as first)
You've got me feeling hella good
So let's just keep on dancing
You hold me like you should
So I'm gonna keep on dancing

[Chorus]
(Same as first except double)
e|------------------------------------------------------|
B|------------------------------------------------------|
G|------------------------------------------------------|  4x
D|------------------------------------------------------|
A|------------------------------4-2-4-4-2---------------|
E|--3-3-3-4---4-4-3---3-3-3-4-------------4-3-----------|

You've got me feeling hella good
So let's just keep on dancing
You hold me like you should
So I'm gonna keep on dancing
You've got me feeling hella good
So let's just keep on dancing
You hold me like you should
So I'm gonna keep on dancing

[Solo]
e|------------------------------------------------------|
B|-13-13^-11-13^-11^------------------------------------|
G|--------------------12-12-10--------------------------| 2x
D|------------------------------------------------------|
A|------------------------------------------------------|
E|------------------------------------------------------|
uh, yeah yeah

[After Solo]
Only drums and keyboards
If you want to play it, just play something like the intro

[Chorus]
(Same as first except double)
e|------------------------------------------------------|
B|------------------------------------------------------|
G|------------------------------------------------------|  4x
D|------------------------------------------------------|
A|------------------------------4-2-4-4-2---------------|
E|--3-3-3-4---4-4-3---3-3-3-4-------------4-3-----------|

You've got me feeling hella good
So let's just keep on dancing
You hold me like you should
So I'm gonna keep on dancing
You've got me feeling hella good
So let's just keep on dancing
You hold me like you should
So I'm gonna keep on dancing

(AS Gwen says UH UH UH and Keep on dancing)
 play
e|------------------------------------------------------|
B|------------------------------------------------------|
G|------------------------------------------------------|  4x
D|------------------------------------------------------|
A|------------------------------4-2-4-4-2---------------|
E|--3-3-3-4---4-4-3---3-3-3-4-------------4-3-----------|

[Outro]
Just drums and keyboards
Suggest correction
comments
print report bad tab
1 comment total.
+3 reply
NDman 45 Jun 24, 2008 01:24 AM

The solo is:
|------------------------------------------------|
|-13-15b-13p11-13-11-----------------------------|
|--------------------10h12-10h12-10h12-10~~------|x2
|------------------------------------------------|
|-------------------------------------------10-8-|
|------------------------------------------------|

And on second time play
|-----------| |------|
|-----------| |------|
|-----------| at the end instead of |------|
|----8------| |------|
|-10---10-8-| |-10-8-|
|-----------| |------|

guest
You may want to rate the tab now too:
select rating
Wanna post a correction for this tab? Suggest correction