Oops, an error
Loading. Please wait.

In My Head Tab

2,187 views 3 this week
1 commentread comment
1 2 3 4 5
accurate
x 3
add to favorites
launch autoscroll
font size
0
reset
how to read this tab
guitar tuner
Autoscroll
slow
fast
+/-
esc
set tempo
stop
Help us to improve Ultimate-Guitar.com Take our survey!
×
Author
Title: In my head
Artist: No doubt
Album: Rock Steady

Here's a great no doubt song!!!

Intro, Verses & Chorus:
Riff1

Play this palm muted!
e------------------------------
B--3-2-0--0-2-3----------------
G-----------------2-0--0-------
D------------------------2-----
A------------------------------
E------------------------------


Pre-Chorus:
Riff 2 

  Bm                   Em7      F#m7
e--7-------7----------------7---------9-
B--------7--------7-----8--------10-----
G------7--------7---------7---------9---
D----9--------9-------------------------
A---------------------------------------
E---------------------------------------

Bridge:
Bass-line

H:Hammer on
P:Pull off

   E             E  
D--2--2-2-H4P2---2--2-2-H4P2-
A----------------------------
E----------------------------

   B             B  
D----------------------------
A--2--2-2-H4P2---2--2-2-H4P2-
E----------------------------

   D             D  
D--0--0-0-H2P0---0--0-0-H2P0-
A----------------------------
E----------------------------

   A             A  
D----------------------------
A--0--0-0-H2P0---0--0-0-H2P0-
E----------------------------


After the bridge there is another Chorus part and 
the last part is played like this:
Riff 3

e---2---3----------------
B-0---0--------3---------
G------------0-----2-----
D----------------4-------
A------------------------
E------------------------
Suggest correction new What's this?
You can suggest a correction to this tab. Community and Mods will review your correction and vote to approve or reject it.
comments
We did not receive enough feedback on this tab! Please rate:
print report bad tab
1 2 3 4 5
1 comment total.
0 reply
Mad_Merkje 73 wrote on September 8 2002, 12:00 am

The intro riff had a typing error, it should be a F# on de D string. So i changed the 2 in a 4!!

e------------------------------
B--3-2-0--0-2-3----------------
G-----------------2-0--0-------
D!!!!!!!!!!!!!!!!!!!!!!!!!4!!!!
A------------------------------
E------------------------------

guest
You may want to rate the tab now too:
select rating
Please do not post tabs as comments. Select "correction" instead!