Oops, an error
Loading. Please wait.

New Tab

version 1
version 1

Whole song

Interactive

7,629 views 1 this week
no commentswrite comment
1 2 3 4 5
excellent!
x 9
add to favorites
launch autoscroll
font size
0
reset
how to read this tab
guitar tuner
Tab Pro tools
  • play this tab
  • loop segment
  • change instrument
  • show fretboard
  • metronome
×
Best way to learn
"New"
Autoscroll
slow
fast
+/-
esc
set tempo
stop
Contributor
No Doubt
Album: Return of Saturn
Title: New

- After browsing through the tabs of New in UG,
I wasn’t satisfied at all with what I saw...
So, as always, I submit my own tab when all else fails.

- This song rocks! Maybe it’s just me, but this became one of
my faves instantly when I watched the movie Go years ago...

- I won’t be putting the number of strums in this tab,
since it really is easy to get the song's rythm.

- Anyways... here it is.

Enjoy!

Tuning: E B G D A E

Intro: 00:00 – 00:20.
======
- Strum Riff 1.                                             
Riff 1
------
e|-5-----4-----2-----0-----|
B|-5-----5-----2-----0-----|
G|-6-----4-----2-----1-----|
D|-7-----6-----4-----2-----|
A|-7-----4-----4-----2-----|
E|-5-----------2-----0-----|

Don't let it go away 
This feeling has got to stay ------------------- (Riff 1)

Don't let it go away 
This feeling has got to stay ------------------- (Riff 1)

And I can't believe I've had this chance now --- (Riff 1)

e|-5-----4-----|
B|-5-----5-----|
G|-6-----6-----|
D|-7-----6-----|
A|-7-----4-----|
E|-5-----------|
Don't let it go away


Verse: 00:20 – 01:10.
======
Riff 2
------
e|------------------------------------|
B|------------------------------------|
G|------------------------------------|
D|-----4--------3---------------------|
A|-----------------------7--------6---|
E|-2-2---2--4-4---4--5-5---5--7-7---7-|
- Do Riff 2 (18x)

New, you're so new 
You, you're new 
And I never had this taste in the past 
New, you're so new 

My normal hesitation is gone 
And I really gravitate to your will 
Are you here to fetch me out? 
'Cause I've never had this taste in my mouth


Pre-chorus: 01:11 – 01:22.
===========
e|-----------|
B|-----------|
G|-7--9--11--|
D|-7--9--11--|
A|-5--7--9---|
E|-----------|
You’re not old

e|----------|
B|----------|
G|-7--9-----|
D|-7--9--4--|
A|-5--7--4--|
E|-------2--|
And you’re not familiar

e|------------------------------|
B|------------------------------|
G|-7--9--11--13--14--16--17--18-|
D|-7--9--11--13--14--16--17--18-|
A|-5--7--9---11--12--14--15--16-|
E|------------------------------|
Recently discovered and I’m learning about you


Verse: 01:22 – 01:55.
======
- Do Riff 2 (12x)

New, you're so new 
You, you’re new 

And you're consuming me violently 
And your reverence shamelessly tempting me 
Who sent this maniac? 
'Cause I never had this taste in the past

Pre-chorus: 01:56 – 02:07.
===========
- Same as the first pre-chorus.

You're different, you're different from the former 
Like a fresh battery, I'm energized by you


Chorus: 02:07 – 02:29.
=======
- Same chords as in Riff 1, only this time, you pick it, not strum it.
- It goes something like this:
e|--------------------------------------------------------------------|
B|--------------------------------------------------------------------|
G|-------6-----------4-----------2-----------1------------------------|
D|----7-----7-----6-----6-----4-----4-----2-----2---------------------|
A|-------------4------------------------------------------------------|
E|-5-----------------------2-----------0------------------------------|
Don't let it go away
This feeling has got to stay

e|-------------------------------2-----------0------------------------|
B|-------5-----------6--------2-----------0---------------------------|
G|----------6-----6-----------------2-----------1---------------------|
D|----7-----------------6---------------------------------------------|
A|-------------4------------------------------------------------------|
E|-5-----------------------2-----------0------------------------------|
Don't let it go away
This feeling has got to stay

e|-5-----4-----2-----0-----|
B|-5-----5-----2-----0-----|
G|-6-----4-----2-----1-----|
D|-7-----6-----4-----2-----|Strum this (1x).
A|-7-----4-----4-----2-----|Power chords (triads) are nice here.
E|-5-----------2-----0-----|
And I can't believe I've had this chance now

e|------------------------------------------------------------|
B|------------------------------------------------------------|
G|-------6-----------4----------------------------------------|
D|----7-----7-----6-----4------4--------3---------------------|
A|-------------4---------------------------------7--------6---|
E|-5-----------------------2-2---2--4-4---4--5-5---5--7-7---7-|
Don't let it go away


Bridge: 02:30 – 02:52.
=======
Riff 3
------
- This whole riff is palm muted.
e|------------------------------------------------|
B|------------------------------------------------|
G|------------------------------------------------|
D|----4--7--4-----4--7--4-----4--7--4-----4--7--4-|
A|-5-----------4-----------3-----------4----------|
E|------------------------------------------------|
Why am I so curious? ------------------------ (Riff 3)
This territory is dangerous ----------------- (Riff 3)
I'll probably end up at the start ----------- (Riff 3)
I'll be back in line with my broken heart --- (Riff 3)


Pre-chorus*: 02:53 – 03:14.
============
*This is actually the first half of the verses.
- Do Riff 2 (8x) only.

New, you're so new 
You, you're new 
And I never had this taste in the past


Chorus: 03:15 – 04:12.
=======
e|--------------------------------------------------------------------|
B|--------------------------------------------------------------------|
G|-------6-----------4-----------2-----------1------------------------|
D|----7-----7-----6-----6-----4-----4-----2-----2---------------------|
A|-------------4------------------------------------------------------|
E|-5-----------------------2-----------0------------------------------|
Don't let it go away
This feeling has got to stay

e|-------------------------------2-----------0------------------------|
B|-------5-----------6--------2-----------0---------------------------|
G|----------6-----6-----------------2-----------1---------------------|
D|----7-----------------6---------------------------------------------|
A|-------------4------------------------------------------------------|
E|-5-----------------------2-----------0------------------------------|
Don't let it go away
This feeling has got to stay

e|-5-----4-----2-----0-----|
B|-5-----5-----2-----0-----|
G|-6-----4-----2-----1-----|
D|-7-----6-----4-----2-----|Strum this (1x).
A|-7-----4-----4-----2-----|
E|-5-----------2-----0-----|
And I can't believe I've had this chance now

e|--------------------------------------------------------------------|
B|--------------------------------------------------------------------|
G|-------6-----------4-----------2-----------1------------------------|
D|----7-----7-----6-----6-----4-----4-----2-----2---------------------|
A|-------------4------------------------------------------------------|
E|-5-----------------------2-----------0------------------------------|
Don't let it go away

e|-5-----4-----2-----0-----|
B|-5-----5-----2-----0-----|
G|-6-----4-----2-----1-----|
D|-7-----6-----4-----2-----|Strum this (2x).
A|-7-----4-----4-----2-----|
E|-5-----------2-----0-----|
And I can’t believe it 
Can’t believe it 
Can’t believe it 
Can’t believe it

e|--------------------------------------------------------------------|
B|--------------------------------------------------------------------|
G|-------6-----------4-----------2-----------1------------------------|
D|----7-----7-----6-----6-----4-----4-----2-----2---------------------|
A|-------------4------------------------------------------------------|
E|-5-----------------------2-----------0------------------------------|
Don't let it go away
This feeling has got to stay

e|-------------------------2-----|
B|-------------------------2-----|
G|-------6-----------4-----2-----|
D|----7-----7-----6-----6--4-----|
A|-------------4-----------4-----|
E|-5-----------------------2-----|
Don't let it go away

And that’s it!

E-mail me at ifyhard2@yahoo.com for comments, suggestions, or whatever, really!

-Ifyhard
comments
print report bad tab
I want to post or [tab]
guest
You may want to rate the tab now too:
select rating
Please do not post tabs as comments. Select "correction" instead!