Oops, an error
Loading. Please wait.

Simple Kind Of Life Tab

version 3
version 3

Whole song

Interactive

20,106 views 12 this week
no commentswrite comment
1 2 3 4 5
excellent!
x 14
add to favorites
launch autoscroll
font size
0
reset
how to read this tab
guitar tuner
Autoscroll
slow
fast
+/-
esc
set tempo
stop
Help us to improve Ultimate-Guitar.com Take our survey!
×
***NO DOUBT - SIMPLE KIND OF LIFE***

Transcribed by V. Chiangtong
jickser600@hotmail.com

Tuning: E A D G B E

INTRO/VERSE

E---0------0------3-------0-----
B---3------3------3-------1-----
G---2------2------0-------0-----
D---0------3------2-------2-----
A---0------0------3-------3-----
E---X------X------X-------X-----


Chorus

E--0----0----1-----1----0------
B--1----1----1-----3----0------
G--0----3----2-----3----0------
D--2----2----3-----3----2------
A--3----3----3-----1----3------
E--X----X----1-----X----X------


If we met tomorrow for the very first time...

E--------------
B--6--6--------
G--7--6--5--4--
D--7--6--5--4--
A--5--4--3--2--
E--------------

Outro
E--0---1----
B--0---1----
G--0---2----
D--2---3----
A--3---3----
E--X---x----



**Lyrics**

For a long time I was in love
Not only in love, I was obsessed
With a friendship that no one else could touch
It didn't work out, I'm covered in shells
And all I wanted was the simple things
A simple kind of life
And all I needed was a simple man
So I could be the wife
 
I'm so ashamed, I've been so mean
I don't know how it got to this point
I always was the one with all the love
You came along, I'm hunting you down
 
Like a sick domestic abuser looking for a fight
And all I wanted was the simple things
A simple kind of life
 
If we met tomorrow for the very first time
Would it start all over again?
Would I try to make you mine?
 
I always thought I'd be a mom
Sometimes I wish for a mistake
The longer that I wait the more selfish that I get
You seem like you'd be a good dad
 
Now all those simple things are simply too
Complicated for my life
How'd I get so faithful to my freedom?
When all I ever wanted was the simple things
A simple kind of life  
 
Suggest correction
comments
print report bad tab
guest
You may want to rate the tab now too:
select rating
Wanna post a correction for this tab? Suggest correction