Oops, an error
Loading. Please wait.

Snakes Bass Tab

874 views 1 this week
1 commentread comment
1 2 3 4 5
please rate
add to favorites
launch autoscroll
font size
0
reset
guitar tuner
Autoscroll
slow
fast
+/-
esc
set tempo
stop
Help us to improve Ultimate-Guitar.com Take our survey!
×
No Doubt - Snakes
Submitted By: Anjel
EMail: chimchim221@yahoo.com
Tabbed by: Adam Yanalunas
Additional aid from: Rob Staph
v1.9

      Intro        Main Line             
---|------------|--------------------------------------------
4--|------------|---------2--4--5--4--5--4--2----------------
4--|------------|------------------------------------2--3--2-
---|---0--0-----|---0--0-----------------------0--0----------
                                                           
 Weird Fill Type Stuff              Yet Another Fill Thingie  
|-------------------------------||------------------------------------||
|-----7--8--5-------------------||*----------------------------------*||
|--------------8--7--5----------||*----------------------------------*||
|-5-5-------------------8--7--5-||-3--3--3--3--3--3--5--5--5--5--5--5-||
                                                            
 A Vital Piece Of The Song                      
|--------------------------------------------------------
|------------9-----------------------------------9-------
|---------9-----9-----------------------------9-----9----
|---7--7-----------7--5--5--5--5--5--5--7--7-----------7-
                                                      
|-------------------------------------------------------------
|--------5--7--5--------------------9-------------------------
|-----------------8--7--5--------9-----9-----------5--7--8--7-
|--5--5--------------------7--7-----------7--5--5-------------
                                            
|--------------------------------------
|--------------------------------------
|--------------------------------------
|7--7--7--7--7--7--9--9--9--9--9--9--9-
                                        
     Chorus                           Still Chorus   
||----------7h9--7h9---------||||----------9-----5--------7---
||*------9------------9-----*||||*------------------5--------7
||*---7------------------7--*||||*---7--------3--------5------
||---------------------------||||-----------------------------
                                                        
---------3h5--3h5--3-----------7--5---------------||
------5---------------5-----7--------7--5--3-----*||
---3---------------------5--------------------5--*||
--------------------------------------------------||
Suggest correction
What's this?
You can suggest a correction to this tab. Community and Mods will review your correction and vote to approve or reject it.
comments
We did not receive enough feedback on this tab! Please rate:
print report bad tab
1 2 3 4 5
1 comment total.
0 reply
BassicDubs 184 wrote on October 3 2009, 11:02 am

Good tab...

The main riff sounds better to me an octave down though...
----------------------------------------
----------------------------------------
---------7-9-10--9-10-9-7---------------
---0--0--------------------0--0--7-8-7--

guest
You may want to rate the tab now too:
select rating
Please do not post tabs as comments. Select "correction" instead!