Oops, an error
Loading. Please wait.

Spiderwebs bass

version 2
version 2

Whole song

Interactive

31,498 views 63 this week
no commentswrite comment
1 2 3 4 5
x 19
add to favorites
×
Save as Personal and add changes to this tab that will be seen only by you. Learn more ›
×
You can save this tab as Personal to edit and correct it or add notes. All changes will be seen only by you. Learn more »
launch autoscroll
font size
0
reset
guitar tuner
backing track
0:00
0:00
edit
Autoscroll
slow
fast
+/-
esc
set tempo
stop
Author
Difficulty
intermediate
SPIDERWEBS by No Doubt

Tabbed by: kokuran
Email: rp.no.spam@gmail.com

The fingering is just how I like to play it; there are a bunch of alternatives.
It's as close to the album recording as I could get (minus a couple repeats at the end).

Tuning: Standard (EADG)

 4/4

G|--------------|--------------|---------------|-----------------|
D|--------------|--------------|---------------|-----------------|
A|-----5-8-5----|-------0-3----|-------------5-|-6-5---5-6-5-----|
E|-6---------6--|-1--1------1--|-3---5-6-5-3---|-----8-------8-5-|

G|--------------|--------------|---------------|-----------------|
D|--------------|--------------|---------------|-----------------|
A|-----5-8-5----|-------0-3----|-------------5-|-6-6-5-5---------|
E|-6---------6--|-1--1------1--|-3---5-6-5-3---|---------8-8-6-5-|

G|-------------|-----------|-------------|-----------|
D|-------------|-----------|-------------|---------3-|
A|-------1-----|-1--/5-5-3-|-1-----1-----|-1--/5-5---|
E|-6-1h3---1h3-|-----------|---1h3---1h3-|-----------|

 You think that we connect, that the chemistry's correct
G|-------------|-----------|-------------|-----------|
D|-------------|-----------|-------------|-----------|
A|-1-----1-----|-1--/5-5-3-|-1-----1-----|-1-6-5-----|
E|---1h3---1h3-|-----------|---1h3---1h3-|-------8-1-|

 Your words walk right through my ears, presuming I like what I hear
G|-------------|----------|-------------|---------0-3-|
D|-------------|----------|-------------|-----0-3-----|
A|-1-----1-----|-1-/5-5-3-|-1-----1-----|-1-3---------|
E|---1h3---1h3-|----------|---1h3---1h3-|-------------|

 And now I'm stuck in the web you're
G|-----------0-----|-------0-------|-----------------|
D|-1-1-1-1-1---1-1-|-3-3-3---3-0---|-----------0-----|
A|-----------------|-------------3-|-1-1-1-1-1---1-0-|
E|-----------------|---------------|-----------------|

 spinning, you've got me for your prey
G|-----------------|-----------------|-------|
D|---------------0-|-1-1-1-1-1-0-1-1-|-3/----|
A|-----------0-1---|-----------------|-------|
E|-3-3-3-3-3-------|-----------------|-------|

 Sorry I'm not home right now I'm walking into spiderwebs, so leave...
G|-----------------|-----------------|-----------------|-----------------|
D|-----------------|-----------------|-----------------|-1-1-0-0---------|
A|-----------------|-----------------|-----------------|---------3-3-1-0-|
E|-6-6-6-6-6-6-6-6-|-1-1-1-1-1-1-1-1-|-3-3-3-3-3-3-3-3-|-----------------|

 A likely story, but leave a message and I'll call you back
G|----------------|----------------|-----------------|-----------------|
D|----------------|----------------|-5-5-5-5-5-5-5-0-|-1-1-0-0---------|
A|-1-1-1-1-1-1-1-1s8-8-8-8-8-8-8-8-|-----------------|---------3-3-1-0-|
E|----------------|----------------|-----------------|-----------------|

G|-----------------|--------------|-----------------|---------------|
D|-----------------|--------------|-----------------|---------------|
A|-1-------1-------|-1---/5--5-3--|-1-------1-------|-1---/6-8-5----|
E|-----1h3-----1h3-|--------------|-----1h3-----1h3-|------------8--|

 You're intruding on what's mine, and you're taking up my time
G|-----------------|--------------|-----------------|---2h3p2--------|
D|-----------------|--------------|-----------------|---------3-5----|
A|---------1-------|-1---/5--5-3--|-1-------1-------|-1-----------5--|
E|-6---1h3-----1h3-|--------------|-----1h3-----1h3-|----------------|

 Don't have the courage inside me, to tell you please let me be
G|-----------------|--------------|-----------------|---------0-3-|
D|-----------------|--------------|-----------------|-----0-3-----|
A|---------1-------|-1---/5--5-3--|-1-------1-------|-1-3---------|
E|-6---1h3-----1h3-|--------------|-----1h3-----1h3-|-------------|

 Communication, a telephonic
G|-----------0-----|-------0--------|-----------------|
D|-1-1-1-1-1---1-1-|-3-3-3----3-0---|-----------0-----|
A|-----------------|--------------3-|-1-1-1-1-1---1-0-|
E|-----------------|----------------|-----------------|

 invasion, I'm planning my escape
G|-----------------|-----------------|-------|
D|-------1-0-----0-|-1-1-1-1-1-0-1-1-|-3/----|
A|-----------3-1---|-----------------|-------|
E|-3-3-3-----------|-----------------|-------|

 Sorry I'm not home right now I'm walking into spiderwebs...
G|-----------------|-----------------|-----------------|-----------------|
D|-----------------|-----------------|-----------------|-1-1-0-0---------|
A|-1-1-1-1-1-1-1-1-|-----------------|-----------------|---------3-3-1-0-|
E|-----------------|-1-1-1-1-1-1-1-1-|-3-3-3-3-3-3-3-3-|-----------------|

 A likely story but leave a message and I'll call you back
G|----------------|----------------|-----------------|-----------------|
D|----------------|----------------|-5-5-5-5-5-5-5---|-----------------|
A|-1-1-1-1-1-1-1-1s8-8-8-8-8-8-8-8-|---------------5-|-6-6-5-5---------|
E|----------------|----------------|-----------------|---------8-8-6-5-|

 It is all your fault, I screen my phone calls
G|----------------|----------------|----------------|-----------------|
D|----------------|----------------|----------------|-1-1-0-0---------|
A|----------------|----------------|----------------|---------3-3-1-0-|
E|-6--6-5-6-5-6-5-|-1--1-0-1-0-1-0-|-3--3-2-3-2-3-2-|-----------------|

 No matter who calls I gotta screen my phone calls
G|----------------|----------------|----------------|-----------------|
D|----------------|----------------|----------------|-1-1-0-0---------|
A|-1--1-0-1-0-1-0-|----------------|----------------|---------3-3-1-0-|
E|----------------|-1--1-0-1-0-1-0-|-3--3-2-3-2-3-2-|-----------------|

G|----------------|---------------|----------------|------------------|
D|----------------|---------------|---------5------|--5h6p5---5-------|
A|---------1------|--------1------|-6-6-6-6---6--6-|--------6---6-5---|
E|-3-3-3-3---3--3-|--3-3-3---3--3-|----------------|----------------6-|

G|-----------------|-----------------|-----------------|-----------------|
D|-----------------|-----------------|-1-1-1-1-0-0-0-0-|-----------------|
A|---------1-------|---------1-------|-----------------|-3-3-3-3-1-3-1-0-|
E|-3-3-3-3---3-3-3-|-3-3-3-3---3-3-3-|-----------------|-----------------|

 Now it's gone too deep
G|-----------------|-----------------|-----------------|-0-0-0-0s5--3-2-0-|
D|-----------------|-----------------|-1-1-1-1-3-3-3-3-|------------------|
A|---------1-------|---------1-------|-----------------|------------------|
E|-3-3-3-3---3-3-3-|-3-3-3-3---3-3-3-|-----------------|------------------|

 You wake me in my sleep
G|-----------------|-----------------|-----------------|-----------------|
D|-----------------|-----------------|-1-1-1-1---------|-----------------|
A|---------1-------|---------1-------|-----------------|-------0-1-0-1-0-|
E|-3-3-3-3---3-3-3-|-3-3-3-3---3-3-3-|---------1-1-1-1-|-3-3-3-----------|

 My dreams become nightmares
G|-----------------|-----------------|-----------------|-----------------|
D|-----------------|-----------------|---------5-5-5---|-----------------|
A|---------1-------|---------1-------|-6-6-6-6-------6-|-5-6-5---5-------|
E|-3-3-3-3---3-3-3-|-3-3-3-3---3-3-3-|-----------------|-------6---6-5-4-|

 Cuz you're ringing in my ears!
G|-------|--------|-------------0-0-0-2-2-2-2-3-5----|
D|-------|--------|-1-1-1-3-3-3----------------------|
A|-------|--------|----------------------------------|
E|-3-3-3-|--3-3-3-|----------------------------------|

 Sorry I'm not home right now, I'm walking into spiderwebs...
G|-----------------|-----------------|-----------------|-----------------|
D|-----------------|-----------------|-----------------|-----------------|
A|-----------------|-----------------|-----------------|-6-6-5-5---------|
E|-6-6-6-6-6-6-6-6-|-1-1-1-1-1-1-1-1-|-3-3-3-3-3-3-3-3-|---------8-8-6-5-|

 A likely story, but leave a message and I'll call you back
G|-----------------|-----------------|-----------------|-----------------|
D|-----------------|-----------------|-----------------|-1-1-0-0---------|
A|-----------------|-----------------|-----------------|---------3-3-1-0-|
E|-6-6-6-6-6-6-6-6-|-1-1-1-1-1-1-1-1-|-3-3-3-3-3-3-3-3-|-----------------|

 It is all your fault, I screen my phone calls
G|----------------|----------------|----------------|-----------------|
D|----------------|----------------|----------------|-1-1-0-0---------|
A|-1--1-0-1-0-1-0-|----------------|----------------|---------3-3-1-0-|
E|----------------|-1--1-0-1-0-1-0-|-3--3-2-3-2-3-2-|-----------------|

 No matter matter matter matter who calls, I gotta screen my phone calls
G|----------------|----------------|----------------|-----------------|
D|----------------|----------------|----------------|-1-1-0-0---------|
A|-1--1-0-1-0-1-0-|----------------|----------------|---------3-3-1-0-|
E|----------------|-1--1-0-1-0-1-0-|-3--3-2-3-2-3-2-|-----------------|

 Ooh, the spiderwebs, leave a message and I'll call you back
G|-------------------|-------------------|-------------------|-------------------|
D|-----0-3-------0-3-|-------------------|-----------------0-|-1-1-0-0-----------|
A|-1-1-------1-1-----|-----0-3-------0-3-|-----0-1---0-0-----|---------3-3-3-1-0-|
E|-------------------|-1-1-------1-1-----|-3-3-----------3---|-------------------|

 I'm walking into spiderwebs, so leave a message and I'll call you back
G|-------------------|-------------------|-------------------|-----------------|
D|-----0-3-------0-3-|-------------------|-----------------0-|-1-1-0-0---------|
A|-1-1-------1-1-----|-----0-3-------0-3-|-----0-1---0-0-----|---------3-3-1-0-|
E|-------------------|-1-1-------1-1-----|-3-3-----------3---|-----------------|
       
 It's all your fault......                                                        4x
G||---------------------|--------------------|-0-0-0--0-0-0-0-0-0-|-------------------||
D||o--------------------|-3-3-3--3-3-3-3-3-3-|--------------------|-1-1-0-0----------o||
A||o-1-1-1--1-1-1-1-1-1-|--------------------|--------------------|---------3-3-1-0--o||
E||---------------------|--------------------|--------------------|-------------------||

 I'm walking...
G|--------------|--------------|---------------|-----------------|
D|--------------|--------------|---------------|-----------------|
A|-----5-8-5----|-------0-3----|-------------5-|-6-5---5-6-5-----|
E|-6---------6--|-1--1------1--|-3---5-6-5-3---|-----8-------8-5-|

 I'm walking...
G|--------------|--------------|-----------------|---------------|
D|--------------|--------------|-----------------|-----5---------|
A|-----5-8-5----|-------0-3----|---------------5-|-6-8---8-5-----|
E|-6---------6--|-1--1------1--|-3-3-3-5-6-5-3---|-----------8-5-|

 It's all your fault...
G|--------------|--------------|---------------|-----------------|
D|--------------|--------------|---------------|-----------------|
A|-----5-8-5----|-------0-3----|-------------5-|-6-5---5-6-5-----|
E|-6---------6--|-1--1------1--|-3---5-6-5-3---|-----8-------8-5-|

 I gotta screen...
G|-------------|----------------|---------------|-----------------|----------*|
D|-----5-3-0---|----------3-----|-------------0-|-1-0---0-1-0-----|----------*|
A|-------------|------3h5---5-3-|-----0-1-0-----|-----3-------3-0-|-1--------*|
E|-6-----------|-1--1-----------|-3---------3---|-----------------|----------*|



************************************

| h  Hammer-on
| p  Pull-off
| /  Slide up
| s  Slap

************************************

            
            
Suggest correction
Creating personal tab
Creating personal tab
You can edit any tab online and save it as your Personal.

You can edit, replace or remove any tab part or add personal notes – all changes will be seen only by you.

Personal tabs can be accessed anytime from any device, even offline.
Learn more »
comments
print report bad tab
guest
You may want to rate the tab now too:
select rating
Wanna post a correction for this tab? Suggest correction