Oops, an error
Loading. Please wait.

Spiderwebs tab

version 2
version 2

Whole song

Interactive

90,051 views 114 this week
8 commentsread comments
1 2 3 4 5
x 24
add to favorites
×
Save as Personal and add changes to this tab that will be seen only by you. Learn more ›
×
You can save this tab as Personal to edit and correct it or add notes. All changes will be seen only by you. Learn more »
launch autoscroll
font size
0
reset
how to read this tab
guitar tuner
backing track
0:00
0:00
edit
Autoscroll
slow
fast
+/-
esc
set tempo
stop
Author
Unregistered
[Intro]
e|-6-6--5-5--3-3--6-6-|6-6--5-5--3-3----------------------|
B|-6-6--6-6--3-3--8-8-|6-6--6-6--3-3----------------------|
G|-7-7--5-5--3-3--8-8-|7-7--5-5--3-3-8-8--7-7--5-5--3-2---|
D|--------------------|-----------------------------------|
A|--------------------|--------------6-6--5-5--3-3--1-0---|
E|--------------------|-----------------------------------|

[Verse]
                  Play 5x            Play 1x
e|----------------|----------------|-----------------------------------|
B|----------------|----------------|-----------------------------------|
G|----------------|-----------10~--|-----------------------------------|
D|----8-------8---|---8------------|-----8-------8-------------5-8-----|
A|----------------|--------8-------|-----------------------5-8---------|
E|-66----6--6---6-|-6---6----------|-66-----6--6---6---6-8-------------|

[Pre-Chorus]
e|------------------------------------------------------------------------|
B|------------------------------------------------------------------------|
G|------------------------------------------------------------------------|
D|-8888-8888-10-10-10-10--10-10-10-10------------------------8888-8888-10-|
A|-6666-6666--8--8--8--8---8--8--8--8--8888-8888--5555-5555--6666-6666--8-|
E|-------------------------------------6666-6666--3333-3333---------------|

[Chorus] (2x)
e|----------------------------------------------------|
B|----------------------------------------------------|
G|----------------------------------------------------|
D|----------------------------------11-00-------------|
A|-1111-1110-------------------------------33-10------|
E|------------1111-1111--3333-3333--------------------|

[Verse]
                  Play 5x            Play 1x
e|----------------|----------------|-----------------------------------|
B|----------------|----------------|-----------------------------------|
G|----------------|-----------10~--|-----------------------------------|
D|----8-------8---|---8------------|-----8-------8-------------5-8-----|
A|----------------|--------8-------|-----------------------5-8---------|
E|-66----6--6---6-|-6---6----------|-66-----6--6---6---6-8-------------|

[Pre-Chorus]
e|------------------------------------------------------------------------|
B|------------------------------------------------------------------------|
G|------------------------------------------------------------------------|
D|-8888-8888-10-10-10-10--10-10-10-10------------------------8888-8888-10-|
A|-6666-6666--8--8--8--8---8--8--8--8--8888-8888--5555-5555--6666-6666--8-|
E|-------------------------------------6666-6666--3333-3333---------------|

[Chorus] (2x)
e|----------------------------------------------------|
B|----------------------------------------------------|
G|----------------------------------------------------|
D|----------------------------------11-00-------------|
A|-1111-1110-------------------------------33-10------|
E|------------1111-1111--3333-3333--------------------|

[Post-Chorus] (2x)
e|-----------------------------------------|
B|-----------------------------------------|
G|-----------------------------------------|
D|-----------------------------------------|
A|-8-8-8-8--3-3-3-3--5-5-5-5--66-55--------|
E|-6-6-6-6--1-1-1-1--3-3-3-3--------88-65--|
          

[Bridge]
            Play 5x                  play all this 1x after bridge
e|---------|--------3|-----|-----|-----|-----------------------------------|
B|-------3-|---------|-----|-----|-----|-----------------------------------|
G|-----3---|-----3---|-----|-----|-----|-----------------------------------|
D|---5-----|---5-----|-5-5-|-5-5-|-5-5-|-----------------------------------|
A|-5-------|-6-------|-5-5-|-5-5-|-5-5-|666--888--10-10-10--12-12-12--0-1-3|
E|---------|---------|-3-3-|-3-3-|-3-3-|-----------------------------------|

[Chorus] (2x)
e|----------------------------------------------------|
B|----------------------------------------------------|
G|----------------------------------------------------|
D|----------------------------------11-00-------------|
A|-1111-1110-------------------------------33-10------|
E|------------1111-1111--3333-3333--------------------|      

[Post-Chorus] (2x)
e|-----------------------------------------|
B|-----------------------------------------|
G|-----------------------------------------|
D|-----------------------------------------|
A|-8-8-8-8--3-3-3-3--5-5-5-5--66-55--------|
E|-6-6-6-6--1-1-1-1--3-3-3-3--------88-65--|                        

[Bridge 2]   
                       Play all this 4x
e|-------------------|------------------|----------------------|
B|-------------------|------------------|----------------------|
G|-------------------|------------------|----------------------|
D|-3-(2)(3)(4)(5)(6)-|------------------|----------------------|
A|-1-----------------|3-(2)(3)(4)(5)(6)-|5--66--55--33--1-0----|
E|-------------------|1-----------------|3---------------------|
                    

[Bridge 3]      
                         play 1x                    play 1x
e|-----------------------------|------------------------------------|
B|-----------------------------|------------------------------------|
G|-----------------------------|------------------------------------|
D|-3---------------------------|3-----------------------------------|
A|-1-----3-----5--66-55-33-1-0-|1------3------5----6---5---3---1-0--|
E|-------1-----3---------------|-------1------3---------------------|

[Outro]  (4x)
e|----6-----6-|-------------|----6----6-|--------------|
B|----6-----6-|----10----10-|----8----8-|----8----8----|
G|-xx-7--xx-7-|-xx-10-xx-10-|-xx-7-xx-7-|-xx-8-xx-8----|
D|-xx-8--xx-8-|-xx-10-xx-10-|-xx---xx---|-xx-8-xx-8----|
A|------------|-------------|-----------|--------------|
E|------------|-------------|-----------|--------------|



************************************

| ~    Vibrato
| (n)  Ghost note
| x    Dead note

***********************************

            
            
Suggest correction
Creating personal tab
Creating personal tab
You can edit any tab online and save it as your Personal.

You can edit, replace or remove any tab part or add personal notes – all changes will be seen only by you.

Personal tabs can be accessed anytime from any device, even offline.
Learn more »
comments
print report bad tab
8 comments total. Showing first comments.
+1 reply
Medalion 122 Sep 21, 2004 08:00 PM

I just want to make a correction to your tab for the main riff. The main riff where you have the 10~ on G, that's actually a pinch harmonic, you would vibrato a pinch harmonic on G at the 10th fret.

0 reply
MasterExploder0 40 Jan 18, 2009 06:56 AM

Medalion es correcto

0 reply
silver6100 10 Jan 24, 2009 10:12 AM

gret tab but isnt the chorus the bass because when i listen to the song it sounds higher tan when i play it.
and also the last notes on the prechorus the D-10-| and A-8-|if you bend the strings it sounds a bit better,in my opinion

guest
Wanna post a correction for this tab? Suggest correction