Oops, an error
Loading. Please wait.

Sunday Morning Bass

version 1
version 1

Whole song

Interactive

40,452 views 72 this week
2 commentsread comments
1 2 3 4 5
x 13
add to favorites
launch autoscroll
font size
0
reset
guitar tuner
backing track
0:00
0:00
Autoscroll
slow
fast
+/-
esc
set tempo
stop
Band: No Doubt
Song: Sunday Morning
Album: Tragic Kingdom


Tabbed By: JP Fernandez


[Intro]

G|---------------------------------------|
D|---------------------------------------|            Repeat 7 times
A|-----2--2--------0--2--4--2--4--2------|
E|--0--------4--4--------------------4---|

G|------------------------------------------|
D|------------------------------------------|
A|-----2--2--------0--2--4--4--2--4--2------|
E|--0--------4--4-----------------------4---|

[1st Verse]

G|-------------------------------------------------|
D|-----------------------------------2--2----------|
A|-----2--2--2-----2--4--4--4--2-----------4--4----|
E|--0-----------4-----------------4----------------|

G|----------------------------------------------------------|
D|----------------------------------------------------------|
A|-----2--2--2-----2--4--4--4--2-----------4--4---0--4/11---|
E|--0-----------4-----------------4--0--0-------------------|

G|---------------------------------------|
D|---------------------------------------|            Repeat 2 times
A|-----2--2--------0--2--4--2--4--2------|
E|--0--------4--4--------------------4---|


[2nd Verse]

G|------------------------------------------------------|
D|-----------------------------------2-----2-----6------|
A|-----2--2--2-----2--4--4--4--2--------2-----4-----4---|
E|--0-----------4-----------------4---------------------|

G|----------------------------------------------------------------|
D|----------------------------------------------------------------|
A|-----2--2--2-----2--4--4--4--2--------2-----4-----4---0--4/11---|
E|--0-----------4-----------------4--0-----0-----0----------------|


G|---------------------------------------|
D|---------------------------------------|            Repeat 2 times
A|-----2--2--------0--2--4--2--4--2------|
E|--0--------4--4--------------------4---|

G|--2-----2-----2-----2-----2-------|
D|-----2-----2-----2-----2-----2----|
A|----------------------------------|
E|----------------------------------|

[Chorus]

G|---------------------------------------------------------------------------|
D|---------------------------------------------------------------------------|
A|--4--4--4--4--7--7--7--7--------------------------4--4--4--4--7--7--7--7---|
E|--------------------------2--2--2--2--5--5--4--4---------------------------|

G|---------------------------------------------------|
D|--------------------------------------------6------|
A|--------------4--2-----4--7------4--6--7-----7-----|
E|--5--5--5--5--------5---------5--------------------|

G|---------------------------------|
D|--------------------------6------|    Repeat 2 times
A|-----4--7------4--6--7-----7-----|
E|--5---------5--------------------|


G|---------------------------------------|
D|---------------------------------------|            Repeat 4 times
A|-----2--2--------0--2--4--2--4--2------|
E|--0--------4--4--------------------4---|

                 3rd Verse

G|------------------------------------------------------|
D|-----------------------------------2--2--2------------|
A|-----2--2--2-----2--4--4--4--2--------------4--4--4---|
E|--0-----------4-----------------4---------------------|

G|----------------------------------------------------------------|
D|----------------------------------------------------------------|
A|-----2--2--2-----2--4--4--4--2--------------4-----4---0--4/11---|
E|--0-----------4-----------------4--0--0--0-----0----------------|


G|---------------------------------------|
D|---------------------------------------|            Repeat 2 times
A|-----2--2--------0--2--4--2--4--2------|
E|--0--------4--4--------------------4---|

G|--2-----2-----2-----2-----2-------|
D|-----2-----2-----2-----2-----2----|
A|----------------------------------|
E|----------------------------------|

             Repeat Chorus


G|--2-----2-----2--2-----2------4-----4-----4-----4----4-------|
D|-----2-----2--------2-----2------4-----4-----4----4-----4----|
A|-------------------------------------------------------------|
E|-------------------------------------------------------------|


[Bridge]

G|----------------------------------------------------|
D|----------------------------------------------------|     Repeat 5 times
A|--4--4--4--4--7--7--7--7----------------------------|
E|--------------------------2--2--2--2--5--5--4--5----|

G|----------------------------------------------------|
D|--------------------------4--4--4--4--7--7--7--7----|
A|--4--4--4--4--7--7--7--7----------------------------|
E|----------------------------------------------------|

             3rd Chorus

G|---------------------------------------------------------------------------|
D|---------------------------------------------------------------------------|
A|--4--4--4--4--7--7--7--7--------------------------4--4--4--4--7--7--7--7---|
E|--------------------------2--2--2--2--5--5--4--5---------------------------|

G|---------------------------------------------------------------------|
D|---------------------------------------------------------------------|
A|--------------------------4--4--4--4--7--7--7--7--------------4--2---|
E|--2--2--2--2--5--5--4--5--------------------------5--5--5--5---------|

G|---------------------------------|
D|--------------------------6------|    Repeat 3 times
A|-----4--7------4--6--7-----7-----|
E|--5---------5--------------------|


G|---------------------------------------|
D|---------------------------------------|            Repeat 4 times
A|-----2--2--------0--2--4--2--4--2------|
E|--0--------4--4--------------------4---|


G|--------------------------------------------------|
D|---------------------------------2--2-------------|        Repeat 3 times
A|------------2--4--4-----------2-------------------|
E|---0--2--4-----------0--2--4----------------------|

G|--------------------------------------|
D|---------------------------------2----|
A|------------2--4--4-----------2-------|
E|---0--2--4-----------0--2--4----------|


G|-------------------------------------|
D|--------------------------------2----|              Repeat 3 times
A|------------2--4-------------2-------|
E|---0--2--4---------0--2--4-----------|


G|-------------------|
D|-------------------|
A|-------------------|
E|---0--2--4--2--0---|



************************************

| /  Slide up

************************************
Suggest correction
comments
print report bad tab
2 comments total.
0 reply
gera799 10 Feb 16, 2009 03:38 AM

Could someone do this tab in GuitarPro, please? Thanks

0 reply
maliq_05 10 Sep 22, 2016 12:45 AM

The Specials - Skinhead Symphony Please. Thanks

guest
Wanna post a correction for this tab? Suggest correction