Oops, an error
Loading. Please wait.

Sunday Morning Tab

version 2
version 2

Whole song

Interactive

12,821 views 3 this week
1 commentread comment
1 2 3 4 5
accurate
x 7
add to favorites
launch autoscroll
font size
0
reset
how to read this tab
guitar tuner
Autoscroll
slow
fast
+/-
esc
set tempo
stop
Help us to improve Ultimate-Guitar.com Take our survey!
×
#----------------------------------PLEASE NOTE---------------------------------#
#This file is the author's own work and represents their interpretation of the #
#song. You may only use this file for private study, scholarship, or research. #
#------------------------------------------------------------------------------##
#

From: ksanders@voicenet.com (Kevin Sanders)
Subject: TAB:Sunday Morning by No Doubt
Date: Fri, 20 Sep 1996 19:31:37 GMT


"Sunday Morning" by No Doubt

bass intro              harmonics         harmonics     4x

----------------------------12~~~-------------7~~~--|---------------------------
------------------------12----------------12--------|---------------------------
----------------------------------------------------|---9--9--9-----9--9--------
----------------------------------------------------|---9--9--9-----9--9--------
----------------------------------------------------|---------------------------
----------------------------------------------------|---------------------------



                     4x                                     main
rhythm                    
9--9--9-----9--9--|---------------9-----9--|------------------------------------
9--9--9-----9--9--|---------------9-----9--|------------------------------------
------------------|---9-----9--------------|-----6------------------------------
------------------|---9-----9--------------|--7--6------------------------------
------------------|------------------------|--7--4-------------2--2--------0----
------------------|------------------------|--5--------5/12\0--------4--4-------



                                                            4x

------------------|--------------------------------------|---------------9------
------------------|--------------------------------------|---------------9------
------------------|--------------------------------------|---9-----9------------
------------------|--------------------------------------|---9-----9------------
2--4--2--4--2-----|-----2--2--------0--2--4--2--4--2-----|----------------------
---------------4--|--0--------4--4--------------------4--|----------------------





---9--|----------------------------------------------------|--------------------
---9--|----------------------------------------------------|--------------------
------|-----6----------------------------------------------|--------------------
------|--7--6----------------------------------------------|--------------------
------|--7--4-------------2--2--------0--2--4--2--4--2-----|-----2--2-----------
------|--5--------5/12\0--------4--4--------------------4--|--0--------4--4-----





---------------------|----------------------------------------------------------
---------------------|----------------------------------------------------------
---------------------|--------6--6--6--6----------------------------------------
---------------------|--7-----6--6--6--6--2--2--2--2--4--4--4--4--7--7--7--7----
0--2--4--2--4--2-----|--7-----4--4--4--4--2--2--2--2--4--4--4--4--7--7--7--7----
------------------4--|--5-----------------0--0--0--0--2--2--2--2--5--5--5--5----



                                                3x

|--------------------------------------------|----------------------------------
|--------------------------------------------|------------5---------------------
|--6--6--6--6--------------------------6--4--|---------6-----6-----6-----6------
|--6--6--6--6--2--2--2--2--7--7--7--7--6--4--|---7--7-----------7--6--6---------
|--4--4--4--4--2--2--2--2--7--7--7--7--4--2--|---7-----------------4------------
|--------------0--0--0--0--5--5--5--5--------|---5------------------------------





---------|--------------------------------------|-------------------------------
5--------|--------------------------------------|-------------------------------
---6-----|--------------------------------------|-------------------------------
------6--|--------------------------------------|-------------------------------
---------|-----2--2--------0--2--4--2--4--2-----|-----2--2--------0--2--4--2----
---------|--0--------4--4--------------------4--|--0--------4--4----------------





---------|-----------------------------------|----------------------------------
---------|--5--5--4--4-----------------------|--5--5--4--4----------------------
---------|--------------6--6--4--6--4--7--6--|--------------6--6--4--6--4--7----
---------|-----------------------------------|----------------------------------
4--2-----|-----------------------------------|----------------------------------
------4--|-----------------------------------|----------------------------------



      3x                       broken rhythm --------------------

---|---------------9-----9--|--------------------9--9--9--9--9--9--|------------
---|---------------9-----9--|--------------------9--9--9--9--9--9--|------------
6--|---9-----9--------------|--9--9--9--9--9--9--------------------|-----6------
---|---9-----9--------------|--9--9--9--9--9--9--------------------|--7--6------
---|------------------------|--------------------------------------|--7--4------
---|------------------------|--------------------------------------|--5---------





--------------------------------------------|-----------------------------------
--------------------------------------------|-----------------------------------
--------------------------------------------|-----------------------------------
--------------------------------------------|-----------------------------------
-----------2--2--------0--2--4--2--4--2-----|-----2--2--------0--2--4--2--4-----
---5/12\0--------4--4--------------------4--|--0--------4--4--------------------





------|--------------------------------------------------------|----------------
------|--------------------------------------------------------|----------------
------|--------6--6--6--6--------------------------------------|--6--6--6--6----
------|--7-----6--6--6--6--2--2--2--2--4--4--4--4--7--7--7--7--|--6--6--6--6----
2-----|--7-----4--4--4--4--2--2--2--2--4--4--4--4--7--7--7--7--|--4--4--4--4----
---4--|--5-----------------0--0--0--0--2--2--2--2--5--5--5--5--|----------------



                                 3x

------------------------------|--------------------------------------|----------
------------------------------|-----------5-----------------5--------|----------
------------------------6--4--|--------6-----6-----6-----6-----6-----|----------
2--2--2--2--4--4--4--4--6--4--|--7--7-----------7--6--6-----------6--|----------
2--2--2--2--4--4--4--4--4--2--|--7-----------------4-----------------|-----2----
0--0--0--0--2--2--2--2--------|--5-----------------------------------|--0-------





------------------------------|--------------------------------------|----------
------------------------------|--------------------------------------|----------
------------------------------|--------------------------------------|----------
------------------------------|--------------------------------------|----------
2--------0--2--4--2--4--2-----|-----2--2--------0--2--4--2--4--2-----|----------
---4--4--------------------4--|--0--------4--4--------------------4--|----------



you get the idea... the rest is pretty much more of the same

----------------------||--------------------------------------------------------
----------------------||--------------------------------------------------------
----------------------||--------------------------------------------------------
----------------------||--------------------------------------------------------
----------------------||--------------------------------------------------------
----------------------||--------------------------------------------------------





Suggest correction
comments
print report bad tab
1 comment total.
+1 reply
Rhymeguy217 10 wrote on May 19 2005, 12:00 am

its not ---------|-----------------------------------|----------------------------------
---------|--5--5--4--4-----------------------|--5--5--4--4----------------------
---------|--------------6--6--4--6--4--7--6--|--------------6--6--4--6--4--7--6-
---------|-----------------------------------|----------------------------------
4--2-----|-----------------------------------|----------------------------------
------4--|-----------------------------------|----------------------------------

its

---------|-----------------------------------|----------------------------------
---------|--5--5--4--4-----------------------|--5--5--4--4----------------------
---------|--------------6--6--4--6--4--------|--------------6--6--4--6--4-------
---------|-----------------------------7--6--|-----------------------------7--6-
4--2-----|-----------------------------------|----------------------------------
------4--|-----------------------------------|----------------------------------

guest
You may want to rate the tab now too:
select rating
Wanna post a correction for this tab? Suggest correction