Oops, an error
Loading. Please wait.

The Climb bass

version 1
version 1

Whole song

Interactive

25 views 1 this week
no commentswrite comment
1 2 3 4 5
3 more votes to show rating
add to favorites
×
Save as Personal and add changes to this tab that will be seen only by you. Learn more ›
×
You can save this tab as Personal to edit and correct it or add notes. All changes will be seen only by you. Learn more »
launch autoscroll
font size
0
reset
guitar tuner
edit
Autoscroll
slow
fast
+/-
esc
set tempo
stop
Author
Difficulty
Artist:  No Doubt
Song: The Climb
Album:  Tragic Kingdom

Note:  Song is in 12/8 Time.

[Intro]

G|-------------------|---------------|---------------------|------------------|----------------------|
D|--5----3------7--8-|---------------|--5-----3------7--8--|------------------|--5-----3-------7--8--|
A|-----------5-------|-6-------5-----|------------5--------|--6-------5-------|------------5---------|
E|-------------------|------------6--|---------------------|--------------6---|----------------------|

G|---8--------------------|
D|------------------------|
A|------------5-----------|
E|----------------6----5--|

[Verse]

G|---------------------|------------------|-------------------------|--------------------|
D|---------------------|------------------|-------------------------|--------------------|
A|--------------3--3/6-|------------------|----------------3----3/6-|--------------------|
E|--3---5---6----------|-1---3--3/6----5--|--3----5----6------------|--1----3---3/6---5--|

G|-----------------------------|---------------------|-------------------------------|-----------------------|
D|-----------------------------|---------------------|-------------------------------|-----------------------|
A|-----------------------3---3-|--6--6---------------|------------------------3---3--|-6---8---10---12--12/--|
E|--3---3--5---5--6---6--------|-------1---3--3/6--5-|--3--3--5---5--6----6----------|-----------------------|

[Pre-Chorus]

G|------------------------------------|------------------------------------|---------------------------------|
D|-------------------3--3--3--3--5--3-|------------------------------------|---------------------------------|
A|-3--3--3--3--5--6-------------------|-1--1--1--5--5--5--3--3--3--1--1--1-|--------------------------3--3-3-|
E|------------------------------------|------------------------------------|-3--3--3--5--5--5--6--6-6--------|

G|--------------------------------------|--------------------------------------|
D|--------------------------------------|--------------------------------------|
A|--6--6--6-----------------------------|-----------------------------3--3--3--|
E|-----------1--1--1--3--3--3--6--6--5--|--3--3--3--5--5--5--6--6--6-----------|

G|------------------------------------|------------------------------------|-------------------------------|
D|-------------------3--3--3--3--5--3-|------------------------------------|-------------------------------|
A|-3--3--3--3--5--6-------------------|-1--1--1--1--R--1--1--1--1--1--1--2-|-6-6-6-8-8-8-10-10-10-12-12-12-|
E|------------------------------------|------------------------------------|-------------------------------|

G|-------------------------------------|--------------------------------------|
D|--------------------3--3--3--3--5--3-|--------------------------------------|
A|--3--3--3--3--5--6-------------------|--1--1--1--5--5--5--3--3--3--1--1--1--|
E|-------------------------------------|--------------------------------------|

[Chorus]

G|------------------------------|-------------------------------------|-------------------------|
D|------------------------------|-------------------------------------|-------------------------|
A|-/6--6--6--6-----8/10---8--6--|-------------------4--4--4--4--4--4--|--3---3--5---------------|
E|------------------------------|--4--4--4--4----4--------------------|-------------1---1--3----|

G|------------------------------------|------------------------------|-------------------------------------|
D|---------------------------------3--|------------------------------|-------------------------------------|
A|--1---1--1----1---1--1--3--5--6-----|-/6--6--6--6-----8/10---8--6--|-------------------4--4--4--4--4--4--|
E|------------------------------------|------------------------------|--4--4--4--4----4--------------------|

G|-------------------------|-----------------------------------------|
D|-------------------------|-----------------------------------------|
A|--3---3--5---------------|--1---1/8/13--13--13--13--13--13--13--13-|
E|-------------1---1--3----|-----------------------------------------|

[Verse]

G|--------------------------------------|--------------------------------------|
D|--------------------------------------|--------------------------------------|
A|-----------------------------3--3--3--|--6--6--6-----------------------------|
E|--3--3--3--5--5--5--6--6--6-----------|-----------1--1--1--3--3--3--6--6--5--|

G|--------------------------------------|--------------------------------------------|
D|--------------------------------------|--------------------------------------------|
A|-----------------------------3--3--3--|--6--6--6--8--8--8--10--10--10--12--12--12--|
E|--3--3--3--5--5--5--6--6--6-----------|--------------------------------------------|

G|--------------------------------------|--------------------------------------|
D|--------------------3--3--3--3--5--3--|--------------------------------------|
A|--3--3--3--3--5--6--------------------|-1--1--1--1---R--1--1--1--1--1--1--2--|
E|--------------------------------------|--------------------------------------|

G|-------------------------------------|--------------------------------------|
D|--------------------3--3--3--3--5--3-|--------------------------------------|
A|--3--3--3--3--5--6-------------------|--1--1--1--5--5--5--3--3--3--1--1--1--|
E|-------------------------------------|--------------------------------------|


[Chorus]

G|------------------------------|-------------------------------------|-------------------------|
D|------------------------------|-------------------------------------|-------------------------|
A|-/6--6--6--6-----8/10---8--6--|-------------------4--4--4--4--4--4--|--3---3--5---------------|
E|------------------------------|--4--4--4--4----4--------------------|-------------1---1--3----|

G|------------------------------------|------------------------------|-------------------------------------|
D|---------------------------------3--|------------------------------|-------------------------------------|
A|--1---1--1----1---1--1--3--5--6-----|-/6--6--6--6-----8/10---8--6--|-------------------4--4--4--4--4--4--|
E|------------------------------------|------------------------------|--4--4--4--4----4--------------------|

G|-------------------------|------------------------------------|
D|-------------------------|------------------------------------|
A|--3---3--5---------------|--1--1--1--1--1--1--2--2--2--2--2--2|
E|-------------1---1--3----|------------------------------------|

G|-------------------------------|------------------------------------|-------------------------------|
D|-------------------------------|------------------------------------|-------------------------------|
A|--4--4--4--4--4--4--4--4--4--6-|--1--1--1--1--1--1--2--2--2--2--2--2|--4--4--4--4--4--4--4--4--4--6-|
E|-------------------------------|------------------------------------|-------------------------------|

[Bridge]

G|----------------------|-----------------------8--6--4--|------------------|-----------------------8--6--4--|
D|----------------------|---------------6-6--6-----------|------------------|---------------6-6--6-----------|
A|--1----------2--------|--4---------4-------------------|--1--------2------|--4--------4--------------------|
E|-------1----------2---|------4-------------------------|------1--------2--|------4-------------------------|

G|--------------------------------------|--------------------------------------|
D|--------------------------------------|--------------------------------------|
A|--1--1--1--1--1--1--2--2--2--2--2--2--|--4--4--4--4--4--4--4--4--4--4--4--4--|
E|--------------------------------------|--------------------------------------|

G|--------------------------------------|--------------------------------------|
D|--------------------------------------|--------------------------------------|
A|--1--1--1--1--1--1--2--2--2--2--2--2--|--4--4--4--4--4--4--4--4--4--4--4--4--|
E|--------------------------------------|--------------------------------------|

G|---------------------8--|--------12--------------------------------|---------------------8--|
D|--------5--6--8/10------|--10---------13---------------------------|--------5--6--8/10------|
A|--6---------------------|-------------------13------13/10--12--13--|--6---------------------|
E|------------------------|------------------------------------------|------------------------|

G|--------12------------------------------|----------------------------|-------------------------------------|
D|--10---------13-------------------------|----------------------------|-------------------------------------|
A|-------------------13----13/10--12--13--|-/6--6--6--6---8/10---8--6--|-------------------4--4--4--4--4--4--|
E|----------------------------------------|----------------------------|--4--4--4--4----4--------------------|

G|-------------------------|------------------------------------|------------------------------|
D|-------------------------|---------------------------------3--|------------------------------|
A|--3---3--5---------------|--1---1--1----1---1--1--3--5--6-----|-/6--6--6--6-----8/10---8--6--|
E|-------------1---1--3----|------------------------------------|------------------------------|

G|-------------------------------------|-------------------------|--------------------------------------|
D|-------------------------------------|-------------------------|--------------------------------------|
A|-------------------4--4--4--4--4--4--|--3---3--5---------------|--1--1--1--1--1--1--2--2--2--2--2--2--|
E|--4--4--4--4----4--------------------|-------------1---1--3----|--------------------------------------|

G|---------------------------------|-------------------------------|-------------------------------------|
D|---------------------------------|-----------------3--5----3-----|-------------------------------------|
A|--4--4--4--4--4--4--4------4--5--|--6--6--6--6----------------6--|-------------------4--4--4--4--4--4--|
E|---------------------------------|-------------------------------|--4--4--4--4----4--------------------|

G|------------------------------|--------------------------|
D|------------------------------|--------------------------|
A|--3---3--5--------------------|--1--1--1---1--1--1-------|
E|---------------1----1--3---3--|--------------------------|

[Outro]

G|---------------------|------------------|----------------------|---8--------------------|
D|--5-----3------7--8--|------------------|--5-----3-------7--8--|------------------------|
A|------------5--------|--6-------5-------|------------5---------|------------5-----------|
E|---------------------|--------------6---|----------------------|----------------6----5--|

G|---------------------|------------------|----------------------|---8--------------------|
D|--5-----3------7--8--|------------------|--5-----3-------7--8--|------------------------|
A|------------5--------|--6-------5-------|------------5---------|------------5-----------|
E|---------------------|--------------6---|----------------------|----------------6----5--|

G|--------------------|-------------------|--------------------|-------------5--7-8-7-5----------|
D|----------5----3----|-------------------|--------3--5--x8/7--|-----6--7-8--------------8-7-5---|
A|------5----------5--|-6----5----3-------|-----5--------------|--6------------------------------|
E|--3-----------------|----------------6--|--3-----------------|---------------------------------|

G|--------------------|------------------------|-----------------------|------3------------3/5--3-|----------|
D|-----3-5---5-5-3----|------------------------|----------5--5---5--5--|-------------3--5---------|---------5|
A|-5---------------5--|-6-------5-6---6--6-5---|-----5---------5-------|--6-------6---------------|------5---|
E|--------------------|------6---------------6-|--3--------------------|--------------------------|-3--------|

G|------------------|----------2/3/2----------|-------8----7-----------------|-------------------------------|
D|--------5----6----|-----------------3--5----|---------------8--7--5--3-----|-------------------------------|
A|--6---------------|-------5--------------3--|--6------------------------5--|-------------------4/5-4/5-4/5-|
E|------------------|--3----------------------|------------------------------|--3--3------1-2-3--------------|

G|-------------------------------------|----------------------------------|------------------|
D|-------------------------------------|-----------------3--3-------------|------------------|
A|--6----6------4-5--6--6--6--5--------|--------------5-----------3----5--|-6----6-----------|
E|-------------------------------6--5--|--3---3---------------------------|------------------|

G|-------------------------------------|----------8--------------------|------------------|
D|--5-----------------5----5--5--------|-------8-------8---------------|------------3--5--|
A|--------5--------5-------------5-----|--6---------------6--6----R----|---------5--------|
E|-----------3----------------------3--|-------------------------------|--3---------------|

G|----------------------|--------------------------|------------------------|
D|----------------------|---5----------------------|------------------------|
A|--6-6--6--6--6---R----|--------------------------|---6--------------------|
E|----------------------|--------------------------|------------------------|


Legend:  R = Rest
         / = Slide
         x = dead note

            
            
Suggest correction
Creating personal tab
Creating personal tab
You can edit any tab online and save it as your Personal.

You can edit, replace or remove any tab part or add personal notes – all changes will be seen only by you.

Personal tabs can be accessed anytime from any device, even offline.
Learn more »
Give kudos to tab author, rate the tab!
1 2 3 4 5
comments
print report bad tab
guest
You may want to rate the tab now too:
select rating
Wanna post a correction for this tab? Suggest correction