Oops, an error
Loading. Please wait.

Total Hate 95 Tab

version 1
version 1

Whole song

Interactive

1,706 views 1 this week
1 commentread comment
1 2 3 4 5
2 more votes to show rating
add to favorites
launch autoscroll
font size
0
reset
how to read this tab
guitar tuner
Autoscroll
slow
fast
+/-
esc
set tempo
stop
Help us to improve Ultimate-Guitar.com Take our survey!
×
Difficulty
intermediate
===========================================================================================

Song title: Total hate
Artist: No Doubt (featuring Bradley Nowell of Sublime)
Album: The Beacon Street Collection

Tabbed by: Raph Enderez
	   Tacloban City

I am quite sure that this is the right tab of
this cool song. Its kinda tough putting this into tab you know...
(kay malaksi it ka-kaskas hini nga kanta...)
So to all No Doubters out there, here
goes its detailed tab, chords, and lyrics:

===========================================================================================

Tuning: Standard E

Chords used:

      A#m    C#   F#     G#    E   G#m   C#m
e||----6-----4-----2-----4-----0-----4-----4-----|  
B||----6-----6-----2-----4-----0-----4-----5-----|  
G||----6-----6-----3-----5-----1-----4-----6-----| 
D||----8-----6-----4-----6-----2-----6-----6-----|  
A||----8-----4-----4-----6-----2-----6-----4-----| 
E||----6-----x-----2-----4-----0-----4-----x-----| 

-------------------------------------------------------------------------------------------



intro:						

(Drums)

"Check it out!!!"

RIFF 1:
-------
	A#m	   C#	      A#m      F#   G#
e|---6-6-6-6-----4-4-4-4----6-6-6-6---2-2/4-4-4-------|  
B|---6-6-6-6-----6-6-6-6----6-6-6-6---2-2/4-4-4-------|  
G|---6-6-6-6-----6-6-6-6----6-6-6-6---3-3/5-5-5-------| 4X
D|----------------------------------------------------|  
A|----------------------------------------------------| 
E|----------------------------------------------------| 



Verse:

RIFF 2:
-------
	A#m	   C#	      A#m      F#   G#
e|---6-6-6-6-----4-4-4-4----6-6-6-6---2-2-2-4/6-------|  
B|---6-6-6-6-----6-6-6-6----6-6-6-6---2-2-2-4/6-------|  
G|---6-6-6-6-----6-6-6-6----6-6-6-6---3-3-3-5/6-------|
D|----------------------------------------------------|  
A|----------------------------------------------------| 
E|----------------------------------------------------|

	A#m	   C#	      A#m      F#   G#
e|---6-6-6-6-----4-4-4-4----6-6-6-6----2--------------|  
B|---6-6-6-6-----6-6-6-6----6-6-6-6------2------------|  
G|---6-6-6-6-----6-6-6-6----6-6-6-6--------3----------|
D|----------------------------------------------------|  
A|----------------------------------------------------| 
E|----------------------------------------------------| 
 
(use Riff 2)
	A#m			   C#
You're livin' your life without a care in the world 
 A#m			F#  G#
That's the way it should be 
	A#m		C#
What's life like in a candy swirl 
A#m		    F#  G#
What's life like to me

(use Riff 1)
    A#m		C#
Everyone is slowing down
 A#m			F#  G#
Look once at life on the ground
    A#m		C#
You all are the people, they're runnin' around
A#m		    F#
Not making a sound


Chorus:(heavy distortion)

A#m-F#-G#-E Total hate! 4x



Intro (riff 1)
Hey...Pick it up... 

Verse:(use verse Chords)

(use Riff 2)
You're movin' along, just goin' your own way 
Don't try to change 
You're jumpin', you're runnin', you learn to play 
Never try to rearrange
(use Riff 1)
You're getting tired and starting to drag 
Slowing down and that's sad 
You're walkin' around, you're being a skag 
Huh - well that's not my bag

Back to chorus

(Now this is the reggae part amigo)

[BRADLEY blending with Gwen]
    G#m			 C#m
You don't even know me so don't hate me ( total hate......)
    G#m             C#m
Sublime rockin' No Doubt stylie 
    G#m     	     C#m
We do it Monday and on Friday   ( total hate......)
    G#m			    C#m 
Get back to the show 'cause it's payday
e|---------------|  
B|----5/7\5--4---|  
G|---------------|
D|---------------|  
A|---------------| 
E|---------------| 

   G#m		  C#m
11 o'clock, roll, roll it down    ( You're so fake, you make me shake )
Rock the city with the number one sound    ( Your faded face is so irate )
Long beat, Long Beach and it feels so fine    ( You share with none, you have no one )
Rock this shit straight back to Anaheim   ( You're living your life in total hate )
e|---------------|  
B|----5/7\5--4---|  
G|---------------|
D|---------------|  
A|---------------| 
E|---------------| 

Continue Reggae part
( This is where the trombone starts to play its solo part )


Chorus 8X 
 
Total haaaate! Total hate!

[Bradley]
Bo bo bo bo bo quandbass!

	
	TAPOS NA GIHAP... Haaaay.....

	Whew!!! Now you got it, juz listen to the song okay, and play along with it.
	For comments and suggestions, mail me at raph_soundtripper@yahoo.com.
	( ha tuod la makuti ini nga kanta kay malaksi, pag timing na la ini it imu )
Suggest correction
Give kudos to tab author, rate the tab!
1 2 3 4 5
comments
print report bad tab
1 comment total.
0 reply
Dilara 10 Oct 09, 2013 02:46 PM

thanks mate

guest
You may want to rate the tab now too:
select rating
Wanna post a correction for this tab? Suggest correction