Oops, an error
Loading. Please wait.

Underneath It All Bass Tab

version 3
version 3

Whole song

Interactive

10,514 views 18 this week
1 commentread comment
1 2 3 4 5
accurate
x 8
add to favorites
launch autoscroll
font size
0
reset
guitar tuner
Autoscroll
slow
fast
+/-
esc
set tempo
stop
Help us to improve Ultimate-Guitar.com Take our survey!
×
Author
Difficulty
novice
Intro:
G|----------------------------------|
D|-------2--------------------------|
A|--------2—2\4-4-------------------|
E|---0------------------------------|

----------------------------------|
-------2--------------------------|
--------2—2\4-4-------------------|
---0----------------2h4-----------|

----------------------------------|
-------2--------------------------|
--------2—2\4-4-------------------| [2x]
---0------------------------------|

Verse:
G|----------------------------------|
D|-------2--------------------------|
A|--------2—2\4-4-------------------|
E|---0--------------2h4-------------|

----------------------------------|
-------2--------------------------|
--------2—2\4-44------------------|
---0------------------------------|

----------------------------------|
-------2--------------------------|
--------2—2\4-4-------------------|
---0----------------2h4-----------|

----------------------------------|
-------2-------------2h4----------|
--------2—2\4-4---2h4-------------|
---0------------------------------|

Pre-chorus:
G|--------------1h2p1------------|
D|-------------------------------|
A|-0-0---------------------------| [3x]
E|-------44-4--------------------|

---------------------------------|
---------------------------------|
---0-0----022222222—-------------|
---------------------------------|

Chorus:
G|---------------------------------|
D|---------------------------------|
A|-----2222-0-0------22222222-0-0--| [4x]
E|-0000----------------------------|


(verse)
(chorus)

Bridge 1 (before rap):
G|---------------------------------|
D|---------------------------------|
A|---------------------------------| [2x]
E|-\9~---/5~---\6~---/4~-----------|

---------------------------------|
---------------------------------|
-------------------—-------------|
---\9999/5555\6666/4444----------|

(bettah.. bettah!!)
---------------------------------|
---------------------------------|
-------------------—-------------|
---444444444444------------------|

Bridge 2 (rap):
G|----------------------------------|
D|-------2--------------------------|
A|--------2220-0-----222222220-0----| [4x]
E|-0000-----------------------------|

Verse 3
G|----------------------------------|
D|-------2--------------------------|
A|--------2—2\4-4-------------------| [4x]
E|---0----------------2h4-----------|

(meant to BE.. (delay part)
---------------------------------|
---------------------------------|
--2-2-2-2-2-2-2-2-2-2-2-2--------|
---------------------------------|

(chorus)
Last part of chorus:
(underneath it all.. SLIDE sa NEATH)
G|----------------------------------|
D|----------------------------------|
A|--------—-------------------------|
E|--------7/------------------------|

(chorus until end)
Suggest correction
What's this?
You can suggest a correction to this tab. Community and Mods will review your correction and vote to approve or reject it.
comments
print report bad tab
1 comment total.
0 reply
clowns1564 148 wrote on March 16 2013, 05:52 pm

the chorus goes E, B, A, B, F#, A.

guest
You may want to rate the tab now too:
select rating
Please do not post tabs as comments. Select "correction" instead!