Oops, an error
Loading. Please wait.

Otro Lado chords

310 views 1 this week
1 commentread comment
1 2 3 4 5
3 more votes to show rating
add to favorites
×
Save as Personal and add changes to this tab that will be seen only by you. Learn more ›
×
You can save this tab as Personal to edit and correct it or add notes. All changes will be seen only by you. Learn more »
launch autoscroll
font size
0
reset
transpose
0
reset
simplify chords
display chords
guitar tuner
edit
Autoscroll
slow
fast
+/-
esc
set tempo
stop
Difficulty
intermediate
Strumming
There is no strumming pattern for this song yet. and get +5 IQ
Estos son mas o menos los acordes y la intro.espero que les sea util.
Rodrigo.
                         Otro Lado
ACORDES:EADGBE
Cmaj7:  X32000
D:      XX0232
Em:     022000
Am:     X02210
F:      13321X
Dsus4:  X57755
Esus2:  X79977 o (xx1452)

*: PALM MUTE

INTRO:
      Cmaj7          Dsus4              Em
 E:--------------------------------------------------------------|
 B:----------------------5-------5-----------0-0----0-0-----0-0--|
 G:-------4-----4----------7-------7-----------------------------|
 D:-----5-----5---5----------7-------7-----2-------2------2------|
 A:--3------3-------3/5--------5---------2-------2------2--------|
 E:--------------------------------------------------------------|

RIFF:
       Am     Em   Esus2
 E:---5*-5*---3*----2*---------|
 B:---5*-5*---5*----5*---------|
 G:---5*-5*---4*----4*---------|
 D:----------------------------|
 A:----------------------------|
 E:----------------------------|


Cmaj7     D                  Em
      Yo soy las flores que beben
      Em                        (RIFF)
      La lluvia que seca mi sol
               (X2)
      F            Am
      Las palabra que me guardo
      F              Am
      Son de vidrio, no me engaño
      F            Am
      Las salidas son entradas
      F              Am
      Para abrir de otro lado

      ESTROFA 2: MISMOS ACORDES
      Yo soy las flores que beben
      La lluvia que seca mi sol

      No tengo mas aire en mis dedos
      Para el globo que vuela entre mis manos

      ESTRIBILLO 2: MISMOS ACORDES
      Las palabra que me guardo
      Son de vidrio, no me engaño

      Las salidas son entradas
      Para abrir de otro lado

      Yo soy las flores que beben
      La lluvia que seca mi sol

      F                 Am
     Soltar es retener las palabras,
      F                  Am
     Soltar es retener las palabras que me guardo
      F               Am
     Son de vidrio, no me engaño
      F               Am
     Las salidas son entradas
      F               Am
     Para abrir de otro lado.
FINAL: (intro+riff)

Este tema esta buenisimo,puede que haya errores ya que lo saque a oido y mirando las 
de lara en vivo.espero que les sea util.Cualquier duda o correccion mi e mail es 
rodri_modecure@hotmail.com
Rodri.
Suggest correction
Creating personal tab
Creating personal tab
You can edit any tab online and save it as your Personal.

You can edit, replace or remove any tab part or add personal notes – all changes will be seen only by you.

Personal tabs can be accessed anytime from any device, even offline.
Learn more »
Give kudos to tab author, rate the tab!
1 2 3 4 5
comments
print report bad tab
1 comment total.
0 reply
teachernacho 10 Jan 27, 2011 09:51 AM

El tono original (en el cd) es de Si mayor.
verse: B - C#sus2 - D#m

Con este riff para terminar los versos:
E:---4*-4*---2*----1*---------|
B:---6*-6*---4*----2*---------|
G:---6*-6*---3*----1*---------|
D:----------------------------|
A:----------------------------|
E:----------------------------|

chorus: B - D#m

guest
Wanna post a correction for this tab? Suggest correction