Oops, an error
Loading. Please wait.

Fanatica De Mi tab

26 views 1 this week
no commentswrite comment
1 2 3 4 5
3 more votes to show rating
add to favorites
×
Save as Personal and add changes to this tab that will be seen only by you. Learn more ›
×
You can save this tab as Personal to edit and correct it or add notes. All changes will be seen only by you. Learn more »
launch autoscroll
font size
0
reset
how to read this tab
guitar tuner
edit
Autoscroll
slow
fast
+/-
esc
set tempo
stop
Intro

A - E - D *   

E--9--------9---------9---------9-----12--12-----|
B----10-10----10-10-----10-10----10-10-----------|        
G------------------------------------------------|    x2
D------------------------------------------------|
A------------------------------------------------|
E------------------------------------------------|


A            F#m
Me persigues todo el día,
   Bm                D     E
me mandas besos por internet.
A          F#m
Tengo claro que tu vida
   Bm                D          E
es estar siempre donde yo esté.


F#m            D         A      
Pero todo es tiempo perdido      
   E                  F#m        
ni hoy, ni mañana, jamás         
      D          A             
podrás verme contigo             
      E                        
porque tú...                                          


Coro

A      E      D            A
Sólo me haces reir, reirme así
       E        F#m       D      
porque tú eres fanática de mí    x2


A - E - D *

E--9--------9---------9----------12--12-----|
B----10-10----10-10-----10-10---------------|        
G-------------------------------------------|    x2
D-------------------------------------------|
A-------------------------------------------|
E-------------------------------------------|

            
A            F#m
Me persigues todo el día,
   Bm                D   E
a donde mire tú estás ahí.
A           F#m
Aunque le des a mi vida
  Bm            D   E      
algún motivo para reir

F#m            D         A     
Pero todo es tiempo perdido
   E                  F#m
ni hoy, ni mañana, jamás
      D          A
podrás verme contigo
      E
porque tú...


Coro

A      E      D            A
Sólo me haces reir, reirme así
       E        F#m       D      
porque tú eres fanática de mí    x2


A      E     F#m      B        E      A     E
Sólo me haces reir, fanática de mí...

Puente

A - E - D  (x4) *

E------------------------------------------------------------------------------------|
B----10--9-7--9--10--9-7--9/12-----10-10-10---9---7-7-7--9--10-10-10---9---7-7-7--9--|        
G---------------------------------- 9--9--9---9---7-7-7--9---9--9--9---9---7-7-7--9--|
D------------------------------------------------------------------------------------|
A------------------------------------------------------------------------------------|
E------------------------------------------------------------------------------------|


G#m            E           B                  
Crees que la vida es un juego
F#                  G#m             
ni hoy, ni mañana, jamás
      E            B      
podrás verme de nuevo.
      F#
porque tu...


B      F#      E            B
Sólo me haces reir, reirme así
       F#        G#m          E      
porque tú eres fanática de mí.   x4


Outro

B - F# - E        *
...fanática de mí....   x4 

En esta última parte se escucha un punteo:

E----11--------11--------11---------11-------14-14----|
B------12-12-----12-12-----12-12------12-12-----------|
G-----------------------------------------------------|
D-----------------------------------------------------|
A-----------------------------------------------------|
E-----------------------------------------------------|


NOTA: En las partes donde encuentren el *, es cuestión de escuchar la canción 
para cuadrar las notas. También es necesario escuchar la canción porque en 
algunas partes se arpegia el acorde. 


Otro buena canción de este grupo. Si tienes alguna pregunta o sugerencia, 
no dudes en escribir a mi correo electrónico.
Suggest correction
Creating personal tab
Creating personal tab
You can edit any tab online and save it as your Personal.

You can edit, replace or remove any tab part or add personal notes – all changes will be seen only by you.

Personal tabs can be accessed anytime from any device, even offline.
Learn more »
Give kudos to tab author, rate the tab!
1 2 3 4 5
comments
print report bad tab
guest
Wanna post a correction for this tab? Suggest correction