Oops, an error
Loading. Please wait.

Born Again Tab

158 views 1 this week
no commentswrite comment
1 2 3 4 5
3 more votes to show rating
add to favorites
launch autoscroll
font size
0
reset
how to read this tab
guitar tuner
Autoscroll
slow
fast
+/-
esc
set tempo
stop
Help us to improve Ultimate-Guitar.com Take our survey!
×
Author
			   BORN AGAIN (NO MOTIV) 

     
INTRO (Guitar 1) 
   C                Em                     
   I set the fire.. Lit it from far..         A big mistake..  A5 G5 F5
e|-----------------------------------|                      e|-----------|
B|-----------------------------------|                      B|-----------|
G|-0000000000000000------------------| 2x                   G|-----------|
D|-2222222222222222-2222222222222222-|                      D|-----------|
A|-3333333333333333-2222222222222222-|                      A|-77-55-33--|
E|------------------0000000000000000-|                      E|-55-33-11--|

INTRO (Guitar 2)
                  ^v = bend up ½ step then back down
e|-----------------------------------------------------------------------|
B|----5-----5--5^v-----5-----5—-5^v-----5-----5—-5^v----5-----5----------|
G|-----------------------------------------------------------------------|
D|-5-----5----------5-----5----------5-----5---------5-----5-------------|
A|-----------------------------------------------------------------------|
E|-----------------------------------------------------------------------|
   d  u  d  u  d    d  u  d  u  d    d  u  d  u  d   d  u  d  u  

VERSE 1 (Guitar 1)
        C5               F5
       A wake up... me figured it..               
e|-----------------------------------|            
B|-----------------------------------|     (At end of fourth time
G|-----------------------------------| 4x   lighten palm mute)
D|-5555555555555555------------------|
A|-3333333333333333-3333333333333333-|
E|------------------1111111111111111-|
PM xxxxxxxxxxxxxxxxxxxxxxxxxxxxxxxxx

 VERSE 1:(Guitar 2) 
e|-----------|
B|-----------|
G|-----------| Repeat throughout 
D|----0--2---| verse.
A|-3---------|
E|-----------|
   d  u  u  

PRE-CHORUS 1
       Am                G                  F                      G  
             By the way..  
e|------0--------0-------------------------------------------------------|
B|------1--------1-------------------------------------------------------|
G|------2--------2--------4--------4--------2--------2--------2----4-4---|
D|------2--------2--------5--------5--------3--------3--------3----5-5---|
A|--0-0-0-0—-0-0-0-0------5—-------5--------3--------3--------3----5-5---|
E|--------------------3-3-3-3--3-3-3-3--1-1-1-1--1-1-1—1--1-1-1-1--3-3---|
 
				
       Am              G                    F                G  
             So why aren’t you..                           today I’m..
e|------0--------0-------------------------------------------------------|
B|------1--------1-------------------------------------------------------|
G|------2--------2--------4--------4--------2--------2-------4---4---4---|
D|------2--------2--------5--------5--------3--------3-------5---5---5---|
A|--0-0-0-0—-0-0-0-0------5—-------5--------3--------3-------5---5---5---|
E|--------------------3-3-3-3--3-3-3-3--1-1-1-1--1-1-1—1-----3---3---3---|

    
CHORUS 1
     C5              Em
  I set the fire.. Lit it from far away.. 
e|-----------------------------------|
B|-----------------------------------|
G|-----------------------------------| 3x
D|-5555555555555555-2222222222222222-|
A|-3333333333333333-2222222222222222-|
E|------------------0000000000000000-|

    F       G    Em    A5 G5 F5         A5 G5 F5
Fade away..  But the..me   
e|-----------------------------------------------|
B|-----------------------------------------------|
G|-22222222-4444---------------------------------|
D|-33333333-5555-2222----------------------------|
A|-33333333-5555-2222--77-55-33-333333--77-55-33-|
E|-11111111-3333-0000--55-33-11-111111--55-33-11-|
                                xxxx


VERSE 2 (Guitar 1)
      C5                  F5
     So now I’m..
e|-----------------------------------|            
B|-----------------------------------|     (At end of fourth time
G|-----------------------------------| 4x   lighten palm-mute)
D|-5555555555555555------------------|
A|-3333333333333333-3333333333333333-|
E|------------------1111111111111111-|
PM xxxxxxxxxxxxxxxxxxxxxxxxxxxxxxxxx

VERSE 2 (Guitar 2)

e|-8--------------------8----|
B|-6/5-—8x8\6x—6/8x-8-8-8----|
G|------7x7\5x-5/7x-7-7------| 2x
D|---------------------------|
A|---------------------------|
E|---------------------------|

VERSE 2 (Guitar 2)

e|-----------------------------------------------------------------------|
B|-----8--------8--------8--------8--------6--------6--------6--------6--|
G|-5-5---5--5-5---5--5-5---5--5-5---5--5-5---5--5-5---5--5-5---5--5-5---5|
D|-----------------------------------------------------------------------|2x
A|-----------------------------------------------------------------------|
E|-----------------------------------------------------------------------|
PM x x x x  x x x x  x x x x  x x x x  x x x x  x x x x  x x x x  x x x x 
   d u d u  d u d u  d u d u  d u d u  d u d u  d u d u  d u d u  d u d u



PRE-CHORUS 2
       Am                G               F                         G  
             By the way..  
e|------0--------0-------------------------------------------------------|
B|------1--------1-------------------------------------------------------|
G|------2--------2--------4--------4--------2--------2--------2----4-4---|
D|------2--------2--------5--------5--------3--------3--------3----5-5---|
A|--0-0-0-0—-0-0-0-0------5—-------5--------3--------3--------3----5-5---|
E|--------------------3-3-3-3--3-3-3-3--1-1-1-1--1-1-1—1--1-1-1-1--3-3---|
 
				
       Am              G                F                           G  
             So why aren’t you..                       
e|------0--------0-------------------------------------------------------|
B|------1--------1-------------------------------------------------------|
G|------2--------2--------4--------4--------2--------2--------2----4-4---|
D|------2--------2--------5--------5--------3--------3--------3----5-5---|
A|--0-0-0-0—-0-0-0-0------5—-------5--------3--------3--------3----5-5---|
E|--------------------3-3-3-3--3-3-3-3--1-1-1-1--1-1-1—1--1-1-1-1--3-3---|


       Am              G                F                  G  
             I wish this never..                       
e|------0--------0-------------------------------------------------------|
B|------1--------1-------------------------------------------------------|
G|------2--------2--------4--------4--------2--------2-------4--------4--|
D|------2--------2--------5--------5--------3--------3-------5--------5--|
A|--0-0-0-0--0-0-0-0------5—-------5--------3--------3-------5--------5--|
E|--------------------3-3-3-3--3-3-3-3--1-1-1-1--1-1-1—1-3-3-3-3--3-3-3-3|


       Am              G                E  F  E  F  G               
            If things just..                             
e|------0--------0-------------------------------------------------------|
B|------1--------1-------------------------------------------------------|
G|------2--------2--------4--------4-------------------------------------|
D|------2--------2--------5--------5----2--3--2--3--5---5-5-5-5-5-5-5----|
A|--0-0-0—0--0-0-0-0------5—-------5----2--3--2--3--5---5-5-5-5-5-5-5----|
E|--------------------3-3-3-3--3-3-3-3--0—-1--0--1--3---3-3-3-3-3-3-3----|
                                                        x x x x

CHORUS 2

     C5              Em
  I set the fire.. Lit it from far away.. 
e|-----------------------------------|
B|-----------------------------------|
G|-----------------------------------| 3x
D|-5555555555555555-2222222222222222-|
A|-3333333333333333-2222222222222222-|
E|------------------0000000000000000-|

    F       G    Em          
Fade away..  But the..me   
e|----------------------|
B|----------------------|
G|-22222222-4444--------|
D|-33333333-5555-2222---|
A|-33333333-5555-2222---|
E|-11111111-3333-0000---|               


BRIDGE (Guitar 1)
                                                                  G     
e|------------------------------------------------------------------------|
B|------------------------------------------------------------------------|
G|----------------------------------------------------------------4-4-4---|
D|-22222222-33333333-00000000-22222222-22222222-33333333-00000000-5-5-5---|
A|-00000000-00000000-00000000-00000000-00000000-00000000-00000000-5-5-5---|
E|----------------------------------------------------------------3-3-3---|
PM xxxxxxxx xxxxxxxx xxxxxxxx xxxxxxxx xxxxxxxx xxxxxxxx xxxxxxxx
          

BRIDGE (Guitar 2)

e|---------------------------------------------|
B|---------------------------------------------|
G|-5-x-5-x-5-5-x--2-x-2-x-2-2------------------|
D|-3-x-3-x-3-3-x--0-x-0-x-0-0-2222222222222222-|
A|-0-x-0-x-0-0-x--0-x-0-x-0-0-0000000000000000-|
E|---------------------------------------------|

OUTRO (Guitar 1)
       F                G                 Am                C 
 So now you’re twenty-one..
e|-----------------------------------------0--------0--------0--------0--|
B|-----------------------------------------1--------1--------1--------1--|
G|-----2--------2--------0--------0--------2--------2--------0--------0--|5x
D|-----3--------3--------0--------0--------2--------2--------2--------2--|
A|-----3--------3--------2--------2----0-0-0-0--0-0-0-0--3-3-3-3--3-3-3-3|
E|-1-1-1-1--1-1-1-1--3-3-3-3--3-3-3-3------------------------------------|
 
       F                               G
  Twenty-one..                 You’re only twenty-one years young
e|-----------------------------------------------------------------------|
B|-----------------------------------------------------------------------|
G|-----2--------2--------2--------2--------4--------4--------4--------4--| 
D|-----3--------3--------3--------3--------5--------5--------5--------5--|
A|-----3--------3--------3--------3--------5--------5--------5--------5--|
E|-1-1-1-1--1-1-1-1--1-1-1—1--1-1-1-1--3-3-3-3--3-3-3-3--3-3-3-3--3-3-3-3|

       C5               Em               C5               Em
e|-----------------------------------------------------------------------|
B|-----------------------------------------------------------------------|
G|-----------------------------------------------------------------------| 
D|-5555555555555555-2222222222222222-5555555555555555-2222222222222222---|
A|-3333333333333333-2222222222222222-3333333333333333-2222222222222222---|
E|------------------0000000000000000------------------0000000000000000---|
 
       C5               Em             F         G     Am
e|------------------------------------------------------0----------------|
B|------------------------------------------------------1----------------|
G|-----------------------------------22222222-44444444--2----------------| 
D|-5555555555555555-2222222222222222-33333333-55555555--2----------------|
A|-3333333333333333-2222222222222222-33333333-55555555--0----------------|
E|------------------0000000000000000-11111111-33333333-------------------|


Outro (Guitar 2)  

e|-0-0-0-0-0-0-0-0--0-0-8-8-0-0-0-0--0-0-8-8-0-0-0-0--0-0-8-8-0-0-0-0----|
B|-5-5-5-5-5-5-5-5--8-8-8-8-8-8-8-8--8-8-8-8-8-8-8-8--8-8-8-8-8-8-8-8----|
G|-----------------------------------------------------------------------|
D|-----------------------------------------------------------------------|
A|-----------------------------------------------------------------------|
E|-----------------------------------------------------------------------|
   d u d u d u d u  d u d u d u d u  d u d u d u d u  d u d u d u d u  

e|-0-0-8-8-0-0-0-0--0-0-0-0--0-0-0-0—-0-0-0-0--0-0-0-0--0-0-0-0--0-0-0-0-|
B|-8-8-8-8-8-8-8-8--8-8-8-8--6-6-6-6--8-8-8-8--5-5-5-5--6-6-6-6--5-5-5-5-|
G|-----------------------------------------------------------------------|
D|-----------------------------------------------------------------------|
A|-----------------------------------------------------------------------|
E|-----------------------------------------------------------------------|
   d u d u d u d u  d u d u  d u d u  d u d u  d u d u  d u d u  d u d u

e|-0-0-0-0-0-0-0-0-------------------------------------------------------|
B|-3-3-3-3-3-3-3-3-------------------------------------------------------|
G|------------------5-----—-12------10--------9------4-----------5--2----|
D|------------------x--------x-------x--------x------x-----------x--x----|
A|------------------3-------10-------8--------7------2-----------3--4----|
E|-----------------------------------------------------------------------|
   d u d u d u d u    fast up and down strum
e|-----------------------------------------------------------------------|
B|-----------------------------------------------------------------------|
G|-5------12-----10------9------4----------5--4----5-------12------10----|
D|-x-------x------x------x------x----------x--x----x--------x-------x----|
A|-3------10------8------7------2----------3--2----3-------10-------8----|
E|-----------------------------------------------------------------------|
  
e|---------------------------------------------------------|
B|---------------------------------------------------------|
G|-9------4----------5--4----5---------------4-------------|
D|-x------x----------x--x----x---------------x-------------|
A|-7------2----------3--2----3---------------2-------------|
E|---------------------------------------------------------|
                             ddddddddddddddddd

| /  slide up
| \  slide down
| h  hammer-on
| p  pull-off
| ~  vibrato
| +  harmonic
| x  Mute note
============================================================================

Suggest correction
Give kudos to tab author, rate the tab!
1 2 3 4 5
comments
print report bad tab
guest
You may want to rate the tab now too:
select rating
Wanna post a correction for this tab? Suggest correction