Oops, an error
Loading. Please wait.

I Know Tab

50 views 1 this week
no commentswrite comment
1 2 3 4 5
please rate
add to favorites
launch autoscroll
font size
0
reset
how to read this tab
guitar tuner
Tab Pro tools
  • play this tab
  • loop segment
  • change instrument
  • show fretboard
  • metronome
×
Best way to learn
"I Know"
Autoscroll
slow
fast
+/-
esc
set tempo
stop
#----------------------------------PLEASE NOTE--------------------------------#
#This file is the author's own work and represents their interpretation of the#
#song. You may only use this file for private study, scholarship, or research.#
#-----------------------------------------------------------------------------#

Date: Mon, 13 Apr 1998 11:55:22 -0700 (PDT)
From: Daniel Field 
Subject: n/no_odd_reason/i_know.tab

BAND:No Odd Reason
SONG: I Know
ALBUM:International Dateline (1998, Toolshed Recordings)
Tabbed by: Daniel Field(no_odd_reason@hotmail.com)
Song written by: Jon Meyer and Daniel Field

Dont' contradict me, I wrote this song.  Any other interpretation is
WRONG!
Intro riff:
   D
E|-----------------|-----------------|-----------------|-------------------|G
B|-----------------|-----------------|-----------------|-------------------|U
G|-7---------------|-----------------|-----------------|-------------------|I
D|-7---------------|-----------------|-----------------|-------------------|T
A|-5---------------|-----------------|-----------------|-------------------|A
E|-----------------|-----------------|-----------------|-------------------|R

FEEDBACK----------------------------------------------
Verse:
  D      G	      D      E        D	       G         D       E
E|-----------------|-----------------|-----------------|-------------------|G
B|------7----------|------7-------9--|------7----------|------7-------9----|U
G|-7-7--7-------4--|-7-7--7--9-9--9--|-7-7--7-------4--|-7-7--7--9-9--9----|I
D|-7-7--7--5-5--5--|-7-7--7--9-9--9--|-7-7--7--5-5--5--|-7-7--7--9-9--9----|T
A|-5-5--5--5-5--5--|-5-5--5--7-7--7--|-5-5--5--5-5--5--|-5-5--5--7-7--7----|A
E|---------3-3--3--|-----------------|---------3-3--3--|-------------------|R
   PM-     PM-       PM-     PM-       PM-     PM-       PM-     PM--------|


  D      G	      D      E        D	       G         D       E
E|-----------------|-----------------|-----------------|-------------------|G
B|------7----------|------7-------9--|------7----------|------7-------9----|U
G|-7-7--7-------4--|-7-7--7--9-9--9--|-7-7--7-------4--|-7-7--7--9-9--9----|I
D|-7-7--7--5-5--5--|-7-7--7--9-9--9--|-7-7--7--5-5--5--|-7-7--7--9-9--9----|T
A|-5-5--5--5-5--5--|-5-5--5--7-7--7--|-5-5--5--5-5--5--|-5-5--5--7-7--7----|A
E|---------3-3--3--|-----------------|---------3-3--3--|-------------------|R
   PM-     PM-       PM-     PM-       PM-     PM-       PM-     PM--------|
     1.I know what you're thinking about me
     2. I don't know what you're trying to be,
  D      G	      D      E        D	       G         D       E
E|-----------------|-----------------|-----------------|-------------------|G
B|------7----------|------7-------9--|------7----------|------7-------9----|U
G|-7-7--7-------4--|-7-7--7--9-9--9--|-7-7--7-------4--|-7-7--7--9-9--9----|I
D|-7-7--7--5-5--5--|-7-7--7--9-9--9--|-7-7--7--5-5--5--|-7-7--7--9-9--9----|T
A|-5-5--5--5-5--5--|-5-5--5--7-7--7--|-5-5--5--5-5--5--|-5-5--5--7-7--7----|A
E|---------3-3--3--|-----------------|---------3-3--3--|-------------------|R
   PM-     PM-       PM-     PM-       PM-     PM-       PM-     PM--------|
     It's not that hard but I- I can see
     Maybe it's you or maybe it's me
  D      G	      D      E        D	       G         D       E
E|-----------------|-----------------|-----------------|-------------------|G
B|------7----------|------7-------9--|------7----------|------7-------9----|U
G|-7-7--7-------4--|-7-7--7--9-9--9--|-7-7--7-------4--|-7-7--7--9-9--9----|I
D|-7-7--7--5-5--5--|-7-7--7--9-9--9--|-7-7--7--5-5--5--|-7-7--7--9-9--9----|T
A|-5-5--5--5-5--5--|-5-5--5--7-7--7--|-5-5--5--5-5--5--|-5-5--5--7-7--7----|A
E|---------3-3--3--|-----------------|---------3-3--3--|-------------------|R
   PM-     PM-       PM-     PM-       PM-     PM-       PM-     PM--------|
      You attempt to ignore me but you don't
      It's so confusing looking at   you
  D      G	      D      E        D	       G         D       E
E|-----------------|-----------------|-----------------|-------------------|G
B|------7----------|------7-------9--|------7----------|-7-7--7--9-9--9----|U
G|-7-7--7-------4--|-7-7--7--9-9--9--|-7-7--7-------4--|-7-7--7--9-9--9----|I
D|-7-7--7--5-5--5--|-7-7--7--9-9--9--|-7-7--7--5-5--5--|-7-7--7--9-9--9----|T
A|-5-5--5--5-5--5--|-5-5--5--7-7--7--|-5-5--5--5-5--5--|-5-5--5--7-7--7----|A
E|---------3-3--3--|-----------------|---------3-3--3--|-------------------|R
   PM-     PM-       PM-     PM-       PM-     PM--------------------------|
	You want to like me but you won't
	What makes you think that I like you
Chorus:
   D      A   G      D         A  G   D        A  G      D         A  G
E|-----------------|-----------------|-----------------|-------------------|G
B|-----------------|-----------------|-----------------|-------------------|U
G|-7-7-7-----------|-7-7--7-7--------|-7-7-7-----------|-7-7--7-7----------|I
D|-7-7-7--7---5----|-7-7--7-7--14-12-|-7-7-7---7--5----|-7-7--7-7--14-12---|T
A|-5-5-5--7---5----|-5-5--5-5--12-10-|-5-5-5---7--5----|-5-5--5-5--12-10---|A
E|--------5---3----|-----------------|---------5--3----|-------------------|R

Chorus words: I know what you're doing, know what you're saying,
	      I know what you're thinking, know what you're playing.

Riff after second chorus:

 D      G	      D      E        D	       G         D       E
E|-----------------|-----------------|-----------------|-------------------|G
B|------7----------|------7----------|------7----------|------7------------|U
G|-7-7--7-------4--|-7-7--7----------|-7-7--7-------4--|-7-7--7------------|I
D|-7-7--7--5-5--5--|-7-7--7---^-^----|-7-7--7--5-5--5--|-7-7--7---^-^------|T
A|-5-5--5--5-5--5--|-5-5--5--7-7-7---|-5-5--5--5-5--5--|-5-5--5--7-7-7-----|A
E|---------3-3--3--|-----------------|---------3-3--3--|-------------------|R
   PM-     PM-       PM-               PM-     PM-      PM-----------------|
Repeat X2
Third verse is exactly the same as first verse.
After third chorus, there's this chromatic scale.  It goes like this:

E|-----------------|-----------------|-----------------|-------------------|G
B|-----------------|-----------------|-----------------|-------------------|U
G|-6-6-7-7-8-8-9-9-|1010111112121313-|14141515161715---|-1818--1818-18-----|I
D|-6-6-7-7-8-8-9-9-|1010111112121313-|14141515161717---|-1818--1818-18-----|T
A|-4-4-5-5-6-6-7-7-|-8-8-9-910101111-|12121313141515---|-1616--1616-16-----|A
E|-----------------|-----------------|-----------------|-------------------|R

Then, it goes back to the verse riff twice, saying 'I Know' in between.
There's a couple bars of just drums, then it goes to the verse riff and
it ends on a D.

Tabulature explanation- PM-  palm muting
			^-Bend and release

(c) Copyright 1998 Toolshed Recordings
comments
We did not receive enough feedback on this tab! Please rate:
print report bad tab
1 2 3 4 5
I want to post or [tab]
guest
You may want to rate the tab now too:
select rating
Please do not post tabs as comments. Select "correction" instead!