Oops, an error
Loading. Please wait.

Hype Tab

4 views 1 this week
no commentswrite comment
1 2 3 4 5
3 more votes to show rating
add to favorites
launch autoscroll
font size
0
reset
how to read this tab
guitar tuner
Autoscroll
slow
fast
+/-
esc
set tempo
stop
Help us to improve Ultimate-Guitar.com Take our survey!
×
Author
Difficulty
Tuning
novice
C G C F A D
"Hype" by NO ONE

Tuning - Low to high: C,G,C,F,A,D

~ = Hold note

-Distortion-  
                        
D|---------------------------|    |---------------------------| 
A|---------------------------|    |---------------------------|
F|---------------------------| 4x |---------------------------| 4x
C|---------------------------|    |---------------------------|
G|---------------------------|    |-0--12-10-12-0--12-10-12-0-| 
C|-0--12-10-12-0--12-10-12-0-|    |-0--12-10-12-0--12-10-12-0-| 
 

D|---------------------------|    |-------------------|
A|---------------------------|    |-------------------|
F|---------------------------| 4x |-7~--7-7--8~--8--8-| 2x
C|-0--12-10-12-0--12-10-12-0-|    |-x---x-x--x---x--x-|
G|-0--12-10-12-0--12-10-12-0-|    |-5~--5-5--6~--6--6-|
C|-0--12-10-12-0--12-10-12-0-|    |-------------------|

                                    
D|---------------------------|    |----------------|    |----|
A|---------------------------|    |----------------|    |----|
F|---------------------------| 4x |----------------| 8X |----|
C|-0--12-10-12-0--12-10-12-0-|    |-0--0-1-0-0-6-0-|    |-0~-|
G|-0--12-10-12-0--12-10-12-0-|    |-0--0-1-0-0-6-0-|    |-0~-|
C|-0--12-10-12-0--12-10-12-0-|    |-0--0-1-0-0-6-0-|    |-0~-|
                                    Last note on 8th time^^^^                 
                                   
D|---------------------------|    |---------------------------|
A|---------------------------|    |---------------------------|
F|---------------------------| 2x |---------------------------| 4x 
C|---------------------------|    |-0--12-10-12-0--12-10-12-0-|
G|---------------------------|    |-0--12-10-12-0--12-10-12-0-|
C|-0--12-10-12-0--12-10-12-0-|    |-0--12-10-12-0--12-10-12-0-|


D|-------------------|    |--------------------------|
A|-------------------|    |--------------------------|
F|-7~--7-7--8~--8--8-| 2x |--------------------------| 4x
C|-x---x-x--x---x--x-|    |-0--12-10-12-0-12-10-12-0-|
G|-5~--5-5--6~--6--6-|    |-0--12-10-12-0-12-10-12-0-|
C|-------------------|    |-0--12-10-12-0-12-10-12-0-|


D|----------------|    |----|    |-----------------------------------------|
A|----------------|    |----|    |-----------------------------------------|
F|----------------| 8X |----|    |-----------------------------------------|
C|-0--0-1-0-0-6-0-|    |-0~-|    |-----------------------------------------|
G|-0--0-1-0-0-6-0-|    |-0~-|    |-----------------------------------------|
C|-0--0-1-0-0-6-0-|    |-0~-|    |-7-7-0-0-8-8-0-0-5-5-0-7-7-0-0-8-8-0-5-0-|
   Last note on 8th time^^^^


D|-----------------------------------------|     |-----------------|
A|-----------------------------------------|     |-----------------|
F|-----------------------------------------| 12x |-----------------| 2x
C|-7-7-0-0-8-8-0-0-5-5-0-7-7-0-0-8-8-0-5-0-|     |-7~-8~-0-7~-8~-5-|
G|-7-7-0-0-8-8-0-0-5-5-0-7-7-0-0-8-8-0-5-0-|     |-7~-8~-0-7~-8~-5-|
C|-7-7-0-0-8-8-0-0-5-5-0-7-7-0-0-8-8-0-5-0-|     |-7~-8~-0-7~-8~-5-|


D|---------------------------|    |----------------|
A|---------------------------|    |----------------|
F|---------------------------| 4x |----------------| 4x
C|-0--12-10-12-0--12-10-12-0-|    |-0--0-1-0-0-6-0-|
G|-0--12-10-12-0--12-10-12-0-|    |-0--0-1-0-0-6-0-|
C|-0--12-10-12-0--12-10-12-0-|    |-0--0-1-0-0-6-0-|

                           
D|-------------------|    |------------------------------|    |----|
A|-------------------|    |------------------------------|    |----|
F|-------------------| 4x |------------------------------| 4x |----|
C|-0-0-0-0-0-1-0-0-6-|    |-0000000000000000333333336666-|    |-0~-|
G|-0-0-0-0-0-1-0-0-6-|    |-0000000000000000333333336666-|    |-0~-|
C|-0-0-0-0-0-1-0-0-6-|    |-0000000000000000333333336666-|    |-0~-|
                                   ^      Last note on 4th time^^^^
Suggest correction
Give kudos to tab author, rate the tab!
1 2 3 4 5
comments
print report bad tab
guest
You may want to rate the tab now too:
select rating
Wanna post a correction for this tab? Suggest correction