Oops, an error
Loading. Please wait.

Putain Si Ca Revient chords

145 views 1 this week
no commentswrite comment
1 2 3 4 5
2 more votes to show rating
add to favorites
×
Save as Personal and add changes to this tab that will be seen only by you. Learn more ›
×
You can save this tab as Personal to edit and correct it or add notes. All changes will be seen only by you. Learn more »
launch autoscroll
font size
0
reset
transpose
0
reset
simplify chords
display chords
guitar tuner
edit
Autoscroll
slow
fast
+/-
esc
set tempo
stop
Author
Difficulty
Strumming
There is no strumming pattern for this song yet. and get +5 IQ

Song: Putain si ça revient
Band: No One Is Innocent
Album: Propaganda
Year: 2015
Tabber: beranger80@hotmail.com



Intro (0:00)

   Gsus4           Bb A Ab
e---------------------------|
b---------------------------|
g----5---5------------------|
d---------------------------|
a---------------------------|
e--3---3----3-3-6--6-6-5-4--|



Verse (0:09)

Gsus4                         Bb Bb A Ab
Retour de flamme, avis de tempête
Gsus4                     Bb Bb A Ab
Le pyromanne tient l'alumette
Gsus4                             Bb Bb A Ab
Retour de flamme sur le bulletin
Gsus4                    Bb Bb A Ab
Et 2002 n'est pas si loin

Gsus4                  Bb Bb A Ab
Il parait que tout bien
Gsus4                          Bb Bb A Ab
Le changement c'est pour demain
Gsus4                       Bb Bb A Ab
Faut conquérir et reconquérir
Gsus4                   Bb Bb A Ab
Et peu importe le moyen.



Verse (0:39)

Gsus4                           Bb Bb A Ab
Elle était belle en bas résille
Gsus4                           Bb Bb A Ab
Elle allait charmer les serpents
Gsus4                                     Bb Bb A Ab
Aujourd'hui l'Europe est une vieille fille
Gsus4                             Bb Bb A Ab
Qui s'offre facile au plus offrant.

Gsus4                 Bb Bb A Ab
Jusqu'ici tout va bien
Gsus4                           Bb Bb A Ab
Les frontières c'est pour demain
Gsus4                     Bb Bb A Ab
Retour de la sainte morale
Gsus4                                    Bb
On nous prédit le retour de l'ordre total



Prechorus (1:10)

Gsus4
Hey Hey
Bb
Ah si ça revient
Gsus4
Hey Hey
Bb
Ah si ça revient
Gsus4 Bb Gsus4
Bb
Ah si ça revient



Prechorus (1:26)

Gm
T'as le droit de rien dire, de laisser aller.
Gm
De pas bouger, de rien penser
Gm
Mais faudra pas qu'on laisse courir
Gm
La mécanique du pire



Chorus (1:41)

    Gsus4                       Bb
e----------------|------------------|
b----------------|------------------|
g----------------|------------------|
d--3-4-5---------|--3-4-5-----------|
a----------------|-------------3----|
e--------3--3-6--|--------3--3---6--|

Gsus4   Bb             Gsus4
Mais putain si ça revient
Gsus4   Bb             Gsus4
Mais putain si ça revient
Gsus4   Bb             Gsus4
Mais putain si ça revient
Gsus4   Bb             Gsus4
Mais putain si ça revient



Solo (1:56)

e-------------------------|
b-------------------------|
g----7--7-6-5----7-----9--|  x3
d--5-----------5---5-5----|
a-------------------------|
e-------------------------|

e-------------------------------|
b-------------------------------|
g----7--7-6-5----7-----9--------|
d--5-----------5---5-5---5-3-5--|
a----------------------------5--|
e----------------------------3--|



Verse (2:16)

Gsus4                   Bb Bb A Ab
La maladie se porte bien
Gsus4                         Bb Bb A Ab
Y a toujours pas le bon vaccin
Gsus4                       Bb Bb A Ab
Où sont passés les canadairs?
Gsus4                         Bb Bb A Ab
Pour étouffer les incendiaires

Gsus4                            Bb Bb A Ab
Les sales idées ont toujours faim
Gsus4                         Bb Bb A Ab
Pour flatter les bas instincts
Gsus4                          Bb Bb A Ab
Pendant l'orage gardons le poing
Gsus4                    Bb
Toujours à portée, toujours à portée de la main



Prechorus (2:47)

Gm
Méfie toi du chant de la sirène
Gm
Derrière la belle se cache la hyène
Gm
Il faudra pas qu'on aille courir
Gm
Derrière la tentation du pire



Prechorus (3:02)

Gsus4 Bb
      Ah si ça revient
Gsus4
Hey Hey
Bb
Ah si ça revient



Chorus (3:11)

    Gsus4                       Bb
e----------------|------------------|
b----------------|------------------|
g----------------|------------------|
d--3-4-5---------|--3-4-5-----------|
a----------------|-------------3----|
e--------3--3-6--|--------3--3---6--|

Gsus4   Bb             Gsus4
Mais putain si ça revient
Gsus4   Bb             Gsus4
Mais putain si ça revient
Gsus4   Bb             Gsus4
Mais putain si ça revient
Gsus4   Bb             Gsus4
Mais putain si ça revient



Solo (3:26)

e-------------------------|
b-------------------------|
g----7--7-6-5----7-----9--|
d--5-----------5---5-5----|
a-------------------------|
e-------------------------|

e-------------------------|
b-------------------------|
g----7--7-6-5----7-----9--|
d--5-----------5---5-5----|
a-------------------------|
e-------------------------|
                   Mais putain si ça revient

e-------------------------|
b-------------------------|
g----7--7-6-5----7-----9--|
d--5-----------5---5-5----|
a-------------------------|
e-------------------------|
                   Mais putain si ça revient

e-------------------------------|
b-------------------------------|
g----7--7-6-5----7-----9--------|
d--5-----------5---5-5---5-3-5--|
a----------------------------5--|
e----------------------------3--|
                   Mais putain si ça revient



Outro (3:42)

Deuxième 21 avril, après le père voilà la fille.
Suggest correction
Creating personal tab
Creating personal tab
You can edit any tab online and save it as your Personal.

You can edit, replace or remove any tab part or add personal notes – all changes will be seen only by you.

Personal tabs can be accessed anytime from any device, even offline.
Learn more »
Give kudos to tab author, rate the tab!
1 2 3 4 5
comments
print report bad tab
guest
You may want to rate the tab now too:
select rating
Wanna post a correction for this tab? Suggest correction