Oops, an error
Loading. Please wait.

Monkey On My Back Tab

16 views 1 this week
no commentswrite comment
1 2 3 4 5
2 more votes to show rating
add to favorites
launch autoscroll
font size
0
reset
how to read this tab
guitar tuner
Autoscroll
slow
fast
+/-
esc
set tempo
stop
Help us to improve Ultimate-Guitar.com Take our survey!
×
Author
Difficulty
novice
About this tab version
Contains full write out of song. Was this info helpful? Yes No
Tabbed by J

[Intro]

e|---------------------------------|
B|---------------------------------|
G|---------6-6-6-6---------7-7-7-6-| x 4
D|-7-7-7-7---------7-7-7-7---------|
A|---------------------------------|
E|---------------------------------|

[Verse]

Wasted on my own again
Dysphorias my only friend
Try to run but I keep coming back
I don't want anybody
All I wants this monkey on my back

e|---------------------------------|
B|---------------------------------|
G|---------6-6-6-6-7-7-7-7-7-7-7-7-| x 4
D|-7-7-7-7-6-6-6-6-7-7-7-7-7-7-7-7-|
A|-7-7-7-7-4-4-4-4-5-5-5-5-5-5-5-5-|
E|-5-5-5-5-------------------------|

e|-----------------------------------|
B|-----------------------------------|
G|---------6-6-6-6-7-7-7-7-7-7---7-6-| x 1
D|-7-7-7-7-6-6-6-6-7-7-7-7-7-7-7-7-6-|
A|-7-7-7-7-4-4-4-4-5-5-5-5-5-5-7-5-4-|
E|-5-5-5-5---------------------5-----|


[Chorus]

I don't mind wasting all my time
It's no one's problem except mine
Don't you worry about me
I'm sad! super depressing life

e|---------------------------------|
B|---------------------------------|
G|---------7-7-7-7-------------7-6-| x 4
D|-4-4-4-4-7-7-7-7-7-7-7-7-7-7-7-6-|
A|-4-4-4-4-5-5-5-5-7-7-7-7-7-7-5-4-|
E|-2-2-2-2---------5-5-5-5-5-5-----|

Fuck chicks that judge and drink bud light, bud light!

e|---------------------------------|
B|---------------------------------|
G|---------7-7-----9-9-9-9-9-9-9-9-| x 1
D|-4-4-4-4-7-7-7-7-9-9-9-9-9-9-9-9-|
A|-4-4-4-4-5-5-7-7-7-7-7-7-7-7-7-7-|
E|-2-2-2-2-----5-5-----------------|

e|---------------------------------|
B|---------------------------------|
G|---------6-6-6-6---------7-7-7-6-| x 4
D|-7-7-7-7---------7-7-7-7---------|
A|---------------------------------|
E|---------------------------------|

[Outro]

Got no friends drink your 40's getting fucked up
Rolling blunts in the morning getting fucked up
Doin lines in the bathroom getting fucked up
Doin whippets in my car getting fucked up

e|-----------------------|
B|-----------------------|
G|-----6-6-----7-7-7-7-7-| x 4
D|-7-7-6-6-4-4-7-7-7-7-7-|
A|-7-7-4-4-4-4-5-5-5-5-5-|
E|-5-5-----2-2-----------|

Got no friends drink your 40's thats beer
Rolling blunts in the morning thats weed
Doin lines in the bathroom getting thats blow
Doin whippets in my car getting I'm dumb

e|-----------------------|
B|-----------------------|
G|----6-----7-7-7-7------| x 4
D|-7--6--4--7-7-7-7------|
A|-7--4--4--5-5-5-5------|
E|-5-----2---------------|

I don't want anybody
All I want's this monkey on my back

e|---------------------------------|
B|---------------------------------|
G|---------6-6-6-6-7-7-7-7-7-7-7-7-| x 1
D|-7-7-7-7-6-6-6-6-7-7-7-7-7-7-7-7-|
A|-7-7-7-7-4-4-4-4-5-5-5-5-5-5-5-5-|
E|-5-5-5-5-------------------------|

e|-------------------------------|
B|-------------------------------|
G|---------6-6-6-6-7-------7-6---| x 1
D|-7-7-7-7-6-6-6-6-7-----7-7-6-4-|
A|-7-7-7-7-4-4-4-4-5-----7-5-4-4-|
E|-5-5-5-5---------------5-----2-|

Suggest correction
Give kudos to tab author, rate the tab!
1 2 3 4 5
comments
print report bad tab
guest
You may want to rate the tab now too:
select rating
Wanna post a correction for this tab? Suggest correction