Oops, an error
Loading. Please wait.

Aguantando Sin Llorar tab

51 views 3 this week
no commentswrite comment
1 2 3 4 5
3 more votes to show rating
add to favorites
×
Save as Personal and add changes to this tab that will be seen only by you. Learn more ›
×
You can save this tab as Personal to edit and correct it or add notes. All changes will be seen only by you. Learn more »
launch autoscroll
font size
0
reset
how to read this tab
guitar tuner
edit
Autoscroll
slow
fast
+/-
esc
set tempo
stop

E|------------------------------------------------
B|------------------------------------------------
G|-7-55-----55-----77--7-55---------------5----77-
D|-7-55-55--55-55--77--7-55-55-/7-7-7-5---5-55-77-
A|-5-33-55--33-55--55--5-33-55----------5-3-55-55-
E|------33-----33-----------33--------------33----

E|--------------------------------------------------------------------|
B|--------------------------------------------------------------------|
G|------------------7-------------------------------------------------|
D|-10-10-10-10-10-7-7-(3 veces)--10-10-10-10-10-7---------------------|
A|-10-10-10-10-10-7-5------------10-10-10-10-10-7---------------------|
E|-8--8--8--8--8--5--------------8--8--8--8--8--5-3-6-5-3-3-3-6-5-3-3-|

En la estrofa (1) la guitarra hace algo parecido a esto de fondo:

  D5-B5   D5-B5   D5-B5   A5  D5-B5  D5-B5  D5-B5   E5
E|------------------------------------------------------------|
B|------------------------------------------------------------|
G|------------------------------------------------------------|
D|------7--------7--------7---7-7-------7-------7-------7-2-2-|
A|-5--------5--------5--------7-7--5-------5-------5------2-2-|
E|----7--------7--------7-----5-5-----7-------7-------7---0-0-|

(1)
D5-B5        D5-B5          D5-B5       A5
No eran esos buenos tiempos para ir a nacer,
D5-B5            D5-5              D5-B5        E5
No podía esperar ni un minuto más, pura vida llamaba.

      D5-B5        D5-B5            D5-B5
Y ha nacido en el sitio equivocado, perdido
         A5                  D5-B5
Y aunque nada entiende de vencidos
      D5-B5            D5-B5       E5
Pregunta porque a este mundo le tuvieron que traer.

(2)
G5                       B5
Conforme con nada se durmió
                   A5                        E5
Y no cuento ni las veces que exprimió su corazón.
G5                           B5
Pero nada queda fuera que le haga despegar
      A5                            E5-D5-E5
Ni sentirse el rey del barrio como solía soñar.

E|-------------------------------|
B|-------------------------------|
G|-------------------------------|
D|-9-9-9-7-9--9-9-9-7-9--9-7-10--|
A|-7-7-7-5/7--7-7-7-5/7--7-5-8---|
E|-------------------------------|

(3)
G5                  D5
Y hoy vuelve a recordar
       A5
Cuando él era más pequeño
G5           D5
Y todo era reír
      A5                    A#5
Y correr vestido de indio o de vaquero
G5                    D5       A5
Y volver a casa codos arañados contra el cemento
G5     D5               B5                            A5
Y aguanta sin llorar... el alcohol que resbala por su corazón.

Punteo:
E|------------------------------------|
B|------------------------------------|
G|-7---10-9---7---10-9---7---10-9-7-9-|
D|---9------9---9------9---9----------|
A|------------------------------------|
E|------------------------------------|

(Igual que 1 pero sólo suena el bajo)
Negra nube le persigue por su condición,
Otro día más igual que el de ayer, es imposible fugarse.

(Igual que 1)
Y se clavan en la memoria ecos sin sentido
De un presente aún agradecido,
Si las penas se olvidaban solo con marcar un gol.

(Igual que 2)
Y hoy no queda nada de ese ayer
Quemadas miles de horas en un mugriento taller
Donde jefes y encargados le intentaban controlar,
Viejos callos de la vida nunca dejan de sangrar.

(Igual que 3)
Y hoy vuelve a recordar
Cuando él era más pequeño
Y todo era reír
Y correr vestido de indio o de vaquero
Y volver a casa codos arañados contra el cemento
Y aguantar si llorar.. el alcohol que resbala por su corazón...

G5

E|----------------------------------------------------------
B|-----10-8-7-8-10------------------------------------------
G|-9-7-------------7---------8------------------------------
D|--------------------7-9-10---7-9-10---7-9-10---7-9-9-10-9-
A|------------------------------------9--------7------------
E|----------------------------------------------------------

E|-10-10-9--7----------------------------------------------
B|-10-10-10---10-8--7-10p8p7-10p8p7-10p8p7-10p8p7----------
G|---------------------------------------------------------
D|---------------------------------------------------------
A|---------------------------------------------------------
E|---------------------------------------------------------

E|-10-10-10-12-10-9--12^14-12-10---------------------------|
B|-------------------------------7-8-10---7-8--------------|
G|--------------------------------------9-----7-9^10-9-----|
D|---------------------------------------------------------|
A|---------------------------------------------------------|
E|---------------------------------------------------------|

Repite estribillo (parte 3)

Repite el punteo

Termina en G5
Suggest correction
Creating personal tab
Creating personal tab
You can edit any tab online and save it as your Personal.

You can edit, replace or remove any tab part or add personal notes – all changes will be seen only by you.

Personal tabs can be accessed anytime from any device, even offline.
Learn more »
Give kudos to tab author, rate the tab!
1 2 3 4 5
comments
print report bad tab
guest
Wanna post a correction for this tab? Suggest correction