Oops, an error
Loading. Please wait.

Controguerra tab

20 views 1 this week
no commentswrite comment
1 2 3 4 5
3 more votes to show rating
add to favorites
×
Save as Personal and add changes to this tab that will be seen only by you. Learn more ›
×
You can save this tab as Personal to edit and correct it or add notes. All changes will be seen only by you. Learn more »
launch autoscroll
font size
0
reset
how to read this tab
guitar tuner
edit
Autoscroll
slow
fast
+/-
esc
set tempo
stop
ACLARACIÓN: C5/B - 7 10 x x x
           A#5/A - 5 8 x x x
La verdad no se cómo se llaman esos acordes así que los anoté así.

Intro:

C5 C5 C5 A#5 C5 D#5, G5 G5 G5 G5 A#5 A#5 x2

E|--------------------------------------------------------------------
B|--------------------------------------------------------------------
G|--------------------------------------------------------------------
D|---0-1-1-0-1-3-1-0-1-----0-0-0-0-1------0-1-1-0-1-3-1-0-1-----0-1-3-
A|-3-------------------1-3-----------3--3-------------------1-3-------
E|--------------------------------------------------------------------

E|----------------------------------------------------------------------
B|--------------------------------------------------------------4-3-4-1-
G|----------------------------------------------------------------------
D|-----5-3----------5-3---3-3-6-5-3-5---0-1-1-0-1-1-0-1-1-0-1-1---------
A|-3-3-----6-5----------6-------------3---------------------------------
E|-------------6-6------------------------------------------------------

LAS ESTROFAS VAN SOBRE C5, G5, D#5, A#5, Y SE REPITE A LO LARGO DEL TEMA.
Me costaba mucho ubicarlos bien en la letra pero escuchando es facilísimo.
Al final de unas estrofas hace una bajada que sí la anoté.

Chiediti quanto si può vivere. 
                                             C5 - B5 - A#5 - A5
Pensi mai alle conseguenze di scelte inconsapevoli? 
Guardati,scopriti e deciditi, 
troppi anni hai chiuso gli occhi 
                    Cm
e il problemi crescono.. 
C5  C5/B A#5 A#5/A
Non puoi ignorare, 
C5    C5/B   A#5     A#5/A
quello che sarà il finale, 
C5     C5/B  A#5 A#5/A  G#5   G#5-A#5
tu non lo vedrai,ma accadrà. 

C5    G5     C5       A#5    D#5
UN DOMANI VERRÀ , NON ALBRGGER??
A#5           D#5 G5
SIEDITI A ASPETTARE! 
C5      G5     C5       A#5    D#5
LEI NON RESISTERÀ , SI RIBELLA GI??
A#5        D#5 G5
COS'ALTRO FARAI ! 

Punteo.

Igual al primer verso:

Svegliati,anche tu puoi scegliere 
chi finanzi quando compri 
                C5 - B5 - A#5 - A5
cose di ogni genere. 
Spot TV ,e desideri sempre di più.. 
per trionfare tu dovrai 
                Cm
essere davvero "COOL" ?!!! Blaaa. 

C5 C5/B A#5 A#5/A  C5     C5/B   A#5  A#5/A
Imprese mondiali,  che ti suonan familiari.. 
C5     C5/B A#5 A#5/A G#5  G#5-A#5
sono imperi che crescono, a ogni costo! 

Estribillo.

La parte "hablada" se toca sobre esto:

A|---------------4-4-4-4-4-4-4---------------3-3-3-3-3-3-
E|-1-1-1-1-1-1-1---------------3-3-3-3-3-3-3-------------

A|---------4-4-4-4---------3-3-3-3-
E|-1-1-1-1---------3-3-3-3--------- x2

D|---10---9-9-
A|-7----7----- x2

Esiste davvero un cattivo sopra un trono a stelle e strisce, 
nemico della natura ,che comanda il mondo intero. 
Contro tanto potere molte cose si può fare 
per non stare più a guardare. 
Controguerra culturale,senza armi ne' dolore. 
Controguerra alimentare,scegli tu cosa comprare!!!! 

Solo: se toca sobre F5, C5. F5: x81010xxx

Estribillo.

Final igual a la intro.

            
            
Suggest correction
Creating personal tab
Creating personal tab
You can edit any tab online and save it as your Personal.

You can edit, replace or remove any tab part or add personal notes – all changes will be seen only by you.

Personal tabs can be accessed anytime from any device, even offline.
Learn more »
Give kudos to tab author, rate the tab!
1 2 3 4 5
comments
print report bad tab
guest
Wanna post a correction for this tab? Suggest correction