Oops, an error
Loading. Please wait.

Himno Relax tab

64 views 1 this week
no commentswrite comment
1 2 3 4 5
2 more votes to show rating
add to favorites
×
Save as Personal and add changes to this tab that will be seen only by you. Learn more ›
×
You can save this tab as Personal to edit and correct it or add notes. All changes will be seen only by you. Learn more »
launch autoscroll
font size
0
reset
how to read this tab
guitar tuner
edit
Autoscroll
slow
fast
+/-
esc
set tempo
stop
Intro/Verso: D#/E - D#/E

D#/E                               A                  E
Vamos cantando de cualquier manera y nos aprieta el botón
D#/E                                 F#                B
si nos juntamos de cuatro pa? arriba no nos aguanta ni dios
D#/E                                    A                 E
te está llamando el vecino de al lado y nos dice bajar la voz
A            E              B                 E
cada segundo que se te pasa sabes que no volverá
A                 E            B                    E
si luego alguno estira la pata lo tendremos que enterrar


E|---------------------------------9---
B|-9---10---12---9h10p9-----9---10---12
G|---9----9----9--------11----9--------
D|------------------------------------
A|------------------------------------
E|------------------------------------

E|--------------------------------------
B|-9---10---12---9h10p9----9----9-10-12-
G|---9----9----9--------11---11---------
D|------------------------------------
A|------------------------------------
E|------------------------------------

E|------------------------------------------------------
B|-9------12-9--------9----------9-10-12-(x6 veces)-(9)-
G|---9-11------9-11-9---9-11^-9-------------
D|------------------------------------
A|------------------------------------
E|------------------------------------

Verso:
D#/E                                  A                  E
Los que manejan las riendas del circo nos recomiendan control
D#/E                          F#                B
sacrificarse toda la semana y nunca pasar a la acción
D#/E                                A                   E
una piedrica atadica, el pescuezo y luego un lijero empujon
A               E               B                 E
hacen encuestas montan colectas todo es un mísero show
A                 E             B                   E
tienen respuestas pero no saben que tu paciencia acabó...


Coro:
        A                  E
Sabemos que no todo marcha bien
              B                      E
pasamos de tu cara si nos vienes a joder
         A                     E
si total qué yo ya se lo que hacer
             B                            E    B E
vivir cada momento por si no existe un después


Repite el primr punteo, sólo que en la parte final
(B|-9-10-12- x6) hace otro punteo. No lo se tocar, así que toquen la base
en esa parte, es E5, B5, E5.


Verso final:
E                                       A                   E
Como no creo ni en dios ni en la virgen ni en los políticos que
E                              F#               E
quieren que seas una marioneta a la que poder mover

Tocar lo que viene en una sola cuerda, es decir:
E: x7xxxx
F#:x9xxxx
G#:x11xxxx
A: x12xxxx

        E                           F#
y si de muertos todos santos cuando llegue el final
       G#                 A    E  B  E
a la derecha del padre no iré, Noooooo
A            E              B                 E
cada segundo que se te pasa sabes que no volverá
A                 E            B                    E
si luego alguno estira la pata lo tendremos que enterrar.


Coro:
        A                  E
Sabemos que no todo marcha bien
              B                      E
pasamos de tu cara si nos vienes a joder
         A                     E
si total qué yo ya se lo que hacer
             B                            E    B E
vivir cada momento por si no existe un después


E|-----------------------------------------------
B|-----5-2-----5------------10-9----------9-10-12
G|-2-2-----4-4-----9-8-9-11------11--9-11--------
D|-----------------------------------------------
A|-----------------------------------------------
E|-----------------------------------------------

E|---------------------------------------
B|-----5-2-----5------------10-9---------
G|-2-2-----4-4-----9-8-9-11------11--(9)-
D|---------------------------------------
A|---------------------------------------
E|---------------------------------------

E|-------------------------------------------------
B|-----5-------------------------------------------
G|-6-4---4-(4)--4-4-4-4-4-6-4--4-4-4-4-6-----------
D|----------------------------------------2-2-2/5-4
A|-------------------------------------------------
E|-------------------------------------------------

E|------------------------------------------
B|--------------------------5-5-9-12--------
G|-4-4-4-4-4-6-4--4-4-4-4-6-----------------
D|------------------------------------------
A|------------------------------------7---5
E|--------------------------------------7---

B5 - repite el principio del punteo del comienzo.

Coro:
        A                  E
Sabemos que no todo marcha bien
              B                      E
pasamos de tu cara si nos vienes a joder
         A                     E
si total qué yo ya se lo que hacer
             B                            E
vivir cada momento por si no existe un después


La segunda vez se puede tocar con acordes o se canta sobre ep solo.

        A                  E
Sabemos que no todo marcha bien
              B                      E
romperemos tu cara si nos vienes a joder
         A                     E
si total qué yo ya se lo que hacer
             B                            E
vivir cada momento por si no existe un después

Outro:
C  D E   C  D E   C  D E   E-E-E-E-E/D#-E/D#-E/D#-E/D#-A
No Relax No Relax No Relax

El final no estoy segura si está bien el E/D#, puede que
vaya D# nomás u otra nota, no lo logro sacar...
El punteo me parece que suena bien.
Suggest correction
Creating personal tab
Creating personal tab
You can edit any tab online and save it as your Personal.

You can edit, replace or remove any tab part or add personal notes – all changes will be seen only by you.

Personal tabs can be accessed anytime from any device, even offline.
Learn more »
Give kudos to tab author, rate the tab!
1 2 3 4 5
comments
print report bad tab
guest
Wanna post a correction for this tab? Suggest correction