Oops, an error
Loading. Please wait.

Nana tab

47 views 1 this week
no commentswrite comment
1 2 3 4 5
3 more votes to show rating
add to favorites
×
Save as Personal and add changes to this tab that will be seen only by you. Learn more ›
×
You can save this tab as Personal to edit and correct it or add notes. All changes will be seen only by you. Learn more »
launch autoscroll
font size
0
reset
how to read this tab
guitar tuner
edit
Autoscroll
slow
fast
+/-
esc
set tempo
stop
CEJILLA: B x4  C#m x2  F# x2(Rasgueo hacia arriba)
Y ahora todo me da igual
se que nunca volverás
B                C#m                F#
¡uieee! sigues pensando que no soy nadie
B             C#m       F#
¡uieee! aquí cantando pa? molestarte

B x4  C#m x2  F# x2
voy silbando una canción
que me alegra el corazón
¡uieee! de las historias que me atrapaban
¡uieee! si me dormía no despertaba

D#m x4          E x4
¡uieee! ¡ahaaa!

E5 F#5

E|---------------------------------------------------11-12-9h11p9--------------
B|-----------------7-5-4h5p4---5555-7777-9999-12-12---------------12-------12--
G|-4-----4-4-----4-----------6-6666-8888-9999------------------------11-13-----
D|---4-6-----4-6---------------------------------------------------------------
A|-----------------------------------------------------------------------------
E|-----------------------------------------------------------------------------

E|---------------------------------------7777-6666-4444-
B|-12-------12---------7-5-4h5p4---7b9b7-9999-7777-5555-
G|----11-13----4-----4-----------6----------------------
D|---------------4-6------------------------------------
A|------------------------------------------------------
E|------------------------------------------------------

E|---------------------------------------|
B|-7---7-9-7-7--7---7-9-7----------------|
G|---9------------9-------9-8-9-6h8-6----|
D|------------------------------------9--|
A|---------------------------------------|
E|---------------------------------------|


1RA ESTROFA:
B5                F#5
Parate en seco, decidete
C#5                 E5     F#5
eres mas fuerte y puedes escoger
B5                F#5
entre quedarte arrinconao
C#5                       E5     F#5
o plantar cara o lo que te tiene asustao
B5                 F#5
salir zumbando si estás cansado
C#5           E5
de mirar siempre pa? atrás
B5               F#5               A5 F#5
no te lo pienses es hora de romper
B
y hoy he decidido no pedir perdón
                          B5
no quiero sentir nunca tu voz
C#5          E5    B5
fiel a mi instinto de perdedor
C#5          E5       D#5
me quedo solo con mi canción
G#5                      C#5       F#5
ya no llamo a tu puerta y digo adiós

(REPITE LA SEGUNDA PARTE DE LA INTRO)

2DA ESTROFA: (Las mismas notas que en la primera)
Coge tu sitio por una vez
un muerto en vida ya no vas a ser
lo que te encuentres te habrás buscao
que no se diga que siempre fuiste un mandao
salir zumbando si estás cansado de pensar en lo demás
nadie te espera, nada queda que perder

B5                A5           G5            A5
Camino a ninguna parte pero no busques en el rincón
B5                  A5        G5                           F#5
he astillado tanto a mi alma que el viento sopla en mi corazón.


E|-------------------------------------------------------
B|----------------------7--------------------------------
G|-6b8b6-4-6---4-6-6b8----6-6h8-6------------------------
D|-----------6--------------------9-9-9-9-9-8-7----------
A|----------------------------------------------9--------
E|-------------------------------------------------------

E|-------------------------------------------------------
B|-----------------------------------7-------------------
G|-------------------------------6b8---6-6h8-6-----------
D|---6-9-9-9-9---6-9-9-9-9---6-9-------------------------
A|-9-----------9-----------9-----------------------------
E|-------------------------------------------------------

E|-11h12h14p11-11h12h14p11-11h12h14p11-11h12h14p11-11-14b16-14-
B|-------------------------------------------------------------
G|-------------------------------------------------------------
D|-------------------------------------------------------------
A|-------------------------------------------------------------
E|-------------------------------------------------------------

E|-14b16-14-12-11-12-12h14----|
B|-------------------------12-|
G|----------------------------|
D|----------------------------|
A|----------------------------|
E|----------------------------|


B5    C#5   E5            B5
y hoy he decidido no pedir perdón
C#5       E5              B5
no quiero sentir nunca tu voz
C#5          E5    B5
fiel a mi instinto de perdedor
C#5          E5       D#5
me quedo solo con mi canción
G#5                      C#5       F#5
ya no llamo a tu puerta y digo adiós

INTRO

            
            
Suggest correction
Creating personal tab
Creating personal tab
You can edit any tab online and save it as your Personal.

You can edit, replace or remove any tab part or add personal notes – all changes will be seen only by you.

Personal tabs can be accessed anytime from any device, even offline.
Learn more »
Give kudos to tab author, rate the tab!
1 2 3 4 5
comments
print report bad tab
guest
Wanna post a correction for this tab? Suggest correction