Oops, an error
Loading. Please wait.

Entre Las Sombras bass

14 views 1 this week
no commentswrite comment
1 2 3 4 5
3 more votes to show rating
add to favorites
×
Save as Personal and add changes to this tab that will be seen only by you. Learn more ›
×
You can save this tab as Personal to edit and correct it or add notes. All changes will be seen only by you. Learn more »
launch autoscroll
font size
0
reset
guitar tuner
edit
Autoscroll
slow
fast
+/-
esc
set tempo
stop
Siempre por viento a solplar...
G|--------------------------------------------------|
D|--------------------------------------------------|
A|--------------------------------------------------|
E|-------3-3-3---5--5--5--X2----3-3-3---5--5--5--3--|
(Hasta) "Esa que muere este tiempo"
 Ahí arranca con este Riff:

G|-----------5h7--5-----5--7------------------------|
D|-------------------7---------5--------------------|
A|--------------------------------------------------|
E|--------------------------------------------------|
(Hasta) "Siempre por mundos tan distantes"
 En donde pisa UN par de veces G Y A

Soy como nubes que amenazan...
G|--------------------------------------------------|
D|--------------------------------------------------|
A|--------------------------------------------------|
E|-------3-3-3---5--5--5--X3----3-3-3---5--5--5--3--|

..."Que va recorriendo mi cuerpo"
G|-----------5h7--5-----5--7------------------------|
D|-------------------7---------5--------------------|
A|--------------------------------------------------|
E|--------------------------------------------------|

Deja que brille lo extraño aunque sea sólo un momento...
         A    G
G|--------------------------------------------------|
D|--------------------------------------------------|
A|--------------------------------------------------|
E|-------555--333-----------------------------------|

 (Hace esto hasta el final)

Termina en G = 3


El tema es bastante sencillo, no hay intro.
El bajo sólo aparece en lugares claves de este
increible tema (los cuales están detallados)
Sale fácil che!
Después subo los acordes y arpegios de guitarra
para este tema.

Suerte!


Alejandro.

            
            
Suggest correction
Creating personal tab
Creating personal tab
You can edit any tab online and save it as your Personal.

You can edit, replace or remove any tab part or add personal notes – all changes will be seen only by you.

Personal tabs can be accessed anytime from any device, even offline.
Learn more »
Give kudos to tab author, rate the tab!
1 2 3 4 5
comments
print report bad tab
guest
Wanna post a correction for this tab? Suggest correction