Oops, an error
Loading. Please wait.

Dedos tab

15 views 1 this week
no commentswrite comment
1 2 3 4 5
3 more votes to show rating
add to favorites
×
Save as Personal and add changes to this tab that will be seen only by you. Learn more ›
×
You can save this tab as Personal to edit and correct it or add notes. All changes will be seen only by you. Learn more »
launch autoscroll
font size
0
reset
how to read this tab
guitar tuner
edit
Autoscroll
slow
fast
+/-
esc
set tempo
stop
Le corregí algunas cosas y la letra que daba pena,
pensando uno en aquella gran banda que era TOTEM... saludos!

INTRO

E |-------------------------------------------------|
B |------------------------------------8h7-10h8-----|
G |--------------------------------7h6--------------|
D |--5h4-------5h4------5h4-----9h7-----------------|  X2
A |------5h7-------5h7------5h7---------------------|
E |-------------------------------------------------|

Riff + MI7#9:

                  MI#79
E |-----------------------|
B |----------------8------|
G |----------------7------|
D |----------------6------|  X2
A |----7h5-5h7-----7------|
E |-----------------------|


1)
       Riff + MI#79         Riff + MI#79
Dedos Son Dedos, Días Son Días,
        Riff + MI#79        Riff + MI#79
Madres Son Madres, Hijos Son Crías,
           LA7             SOL
Los Pensamientos Son Todos Míos,
          LA7             Riff + MI#79
Pero Mi Lengua, Ya No Es Tan Mía.

1)
Si Plantas Rosas, Crecen Sandías,
Si Fueras Coche, Pasan Tranvías,
Así Es Mi Tierra, Que Se Resfría,
Y está Engripada, De hace mil Días.


2)
 MI#79 - LA7 - SOL  SOL-LA7-MI#79
¿Cuándo Sanará Y Caminará?

 MI#79 - LA7 - SOL  SOL-LA7-SI
¿Cuándo Cambiará Y Podrá Cantar?


                 LA7      SOL
Yo Sé Que Tú Me Dirás: Eh! Mira
                 MI#79
Cómo Crecen rosas!
                   LA7
Y Entonces Yo Te Diré:
          SOL              MI#79
Sí, ya lo veo, Sigue Hermosa Mi Tierra.

((Todo otra vez))
Suggest correction
Creating personal tab
Creating personal tab
You can edit any tab online and save it as your Personal.

You can edit, replace or remove any tab part or add personal notes – all changes will be seen only by you.

Personal tabs can be accessed anytime from any device, even offline.
Learn more »
Give kudos to tab author, rate the tab!
1 2 3 4 5
comments
print report bad tab
guest
Wanna post a correction for this tab? Suggest correction