Oops, an error
Loading. Please wait.

Esos Ojos tab

41 views 1 this week
no commentswrite comment
1 2 3 4 5
3 more votes to show rating
add to favorites
×
Save as Personal and add changes to this tab that will be seen only by you. Learn more ›
×
You can save this tab as Personal to edit and correct it or add notes. All changes will be seen only by you. Learn more »
launch autoscroll
font size
0
reset
how to read this tab
guitar tuner
edit
Autoscroll
slow
fast
+/-
esc
set tempo
stop
Las otras transcripciones tenían errores
ésta suena mucho mejor

[INTRO] A-D-C#m-Bm A-D-C#m-G

[PIANO]

e|-12~---10-9-10---9-7-9---7-5-5h7-
B|---------------------------------
G|---------------------------------
D|---------------------------------
A|---------------------------------
E|---------------------------------

e|-5-----------------55-|
B|--7-5~--3~--3-5-3-2---|
G|----------------------|
D|----------------------|
A|----------------------|
E|----------------------|

Mientras suena el piano
esto suena de fondo:
   A         A/D       A/C#      A/B
e|----------------------------------------
B|----------------------------------------
G|---2---2-----2---2-----2---2-----2---2--
D|--2-2---2---2-2---2---2-2---2---2-2---2-
A|-0----0----5----5----4----4----2----2---
E|----------------------------------------

   A         A/D       A/C#
e|------------------------------|
B|------------------------------|
G|---2---2-----2---2-----2---2--|
D|--2-2---2---2-2---2---2-2---2-|
A|-0----0----5----5----4----4---|
E|------------------------------|

[VERSO]

A          C#m            Bm
 Por qué tener un rival?
D                   A
 por qué tener esos ojos?
C#m                  Bm      D
   los que te miran tan mal
A          C#m                  Bm
 ya no se puede salir de la historia
D                  A
 y menos volver atrás
          C#m           Bm
unos se creen tan fuertes
D
 pero no siempre ganan

[PUENTE] A-Bm-D-G

e|-5---7---10-|

[VERSO]

A           C#m         Bm
 Pudiste apagar la luz
D                  A
 y no apagaste sus almas
    C#m            Bm   D
quisiste tapar el sol
Bm     F#m         E
  pero no tapaste nada
Bm          C#m            D
  solo escondiste las caras
    Dm                 A
que no te dejan descansar
               C#m                Bm
y estamos mas juntos y cerca que nunca
D
 pudiste imaginar
A           C#m                Bm
 que esa mentira que vos derramabas
D
 un día te iba a ahogar
A           C#m         Bm
 pudiste apagar la luz
D                  A
 y no apagaste sus almas
   C#m             Bm   D
quisiste tapar el sol
Bm     F#m         E
  pero no tapaste nada
Bm          C#m            D
  solo escondiste las caras
    Dm                 A   C#m  Bm
que no te dejan descansar...
    Dm                A   C#m  Bm
que no te dejan respirar...
    Dm                A   C#m  Bm
que no te dejan de mirar...
    Dm                 A
que no te dejan descansar...


lo nuevo de ntvg, hermosisimo tema la verdad...
cualkier cosa me mandan mail a lalos_boca20@
el 12-06 a copar el Luna muchachos!
Aguante el Rock n' roll y nada mas,
es algo que los chetos no pueden entender!

            
            
Suggest correction
Creating personal tab
Creating personal tab
You can edit any tab online and save it as your Personal.

You can edit, replace or remove any tab part or add personal notes – all changes will be seen only by you.

Personal tabs can be accessed anytime from any device, even offline.
Learn more »
Give kudos to tab author, rate the tab!
1 2 3 4 5
comments
print report bad tab
guest
Wanna post a correction for this tab? Suggest correction