Oops, an error
Loading. Please wait.

Nada Para Ver tab

14 views 1 this week
no commentswrite comment
1 2 3 4 5
2 more votes to show rating
add to favorites
×
Save as Personal and add changes to this tab that will be seen only by you. Learn more ›
×
You can save this tab as Personal to edit and correct it or add notes. All changes will be seen only by you. Learn more »
launch autoscroll
font size
0
reset
how to read this tab
guitar tuner
edit
Autoscroll
slow
fast
+/-
esc
set tempo
stop
Esta es mi segunda tab en La Cuerda. Quise agregar los punteos que
va haciendo la guitarra acustica o electroacustica, ya que nadie los ha
subido hasta el momento. Espero que esten bien. Tambien pongo lo que van
haciendo las trompetas pasado a guitarra. Saludos y cualquier cosa me pueden
escribir a mi mail: jonab_manu@
Aca les pongo las equivalencias de los trastes y cuerdas de tal modo que
la pueden tocar en cualquiera de los dos trastes o cuerdas señaladas, yo lo
voy a poner en una sola.

        2a cuerda (B) | 1a cuerda
Traste         15          10
               13          8
               12          7
               10          5
               8           3

Trompetas:

B-13-13-13-13-13-13-13-12-8-12-|

B-13-13-13-13-13-13-13-15-13-12-|

B-15-15-15-15-15-15-13-12-13-12-10-|

B-13-13-13-13-13-13-13-12-8-12-|

B-8-13-12-10-|

Segundo 41:

e-----------|
B-----------|
G-2-1-------|
D-----3-2---|
A-----------|
E-----------|

Minuto 1:04:

e---8-7-5---8-7-5-|
B-5-------5-------|
G-----------------|
D-----------------|
A-----------------|
E-----------------|

Minuto 1:09

e-5-7-8-7-5---7/8------|
B----------------------|
G----------------------|
D----------------------|
A----------------------|
E----------------------|

Minuto 1:17

e----------------------|
B-6p5------------------|
G-----7-5-4-2---4/5----|
D----------------------|
A----------------------|
E----------------------|

Minuto 1:29

e--------------------|
B--------------------|
G-4-5-7-5-4-2--------|
D--------------------|
A--------------------|
E--------------------|
Suggest correction
Creating personal tab
Creating personal tab
You can edit any tab online and save it as your Personal.

You can edit, replace or remove any tab part or add personal notes – all changes will be seen only by you.

Personal tabs can be accessed anytime from any device, even offline.
Learn more »
Give kudos to tab author, rate the tab!
1 2 3 4 5
comments
print report bad tab
guest
Wanna post a correction for this tab? Suggest correction