Oops, an error
Loading. Please wait.

Ni Uno Suelto tab

version 1
version 1

Whole song

28 views 1 this week
no commentswrite comment
1 2 3 4 5
3 more votes to show rating
add to favorites
×
Save as Personal and add changes to this tab that will be seen only by you. Learn more ›
×
You can save this tab as Personal to edit and correct it or add notes. All changes will be seen only by you. Learn more »
launch autoscroll
font size
0
reset
how to read this tab
guitar tuner
edit
Autoscroll
slow
fast
+/-
esc
set tempo
stop
Colaboración de Sebastián Bargueño ?ELCARACO?.. Correguido por
Juan Frizzera

Hola..Soy Juan Frizzera La transquipcion de seba es muy buena pero
me gustaria agregarle el intro del tema que lo saque en punteo..
Lo mejor seria con dos guitarras una haciendo la base con los
siguientes acordes (Rem - Lam - E) y la otra hace el punteo...
Ahi les va..

Intro:

e-1--3--1-1---3---1-1-1-0---5-4-5-6-7-4---0---8-7-5-0------------------
b-3--5--3-3---5---3-3-3-1------------------------------1---------------
g--------------------------------------------------------2-------------
d----------------------------------------------------------------------
a----------------------------------------------------------------------
E----------------------------------------------------------------------


e-1--3--1-1---3---1-1-1-0---8-7-5----5----4----4----5-0----------------
b-3--5--3-3---5---3-3-3-1---------6----6----5----5--------1------------
g-----------------------------------------------------------2--3-2-1-0-
d----------------------------------------------------------------------
a----------------------------------------------------------------------
E----------------------------------------------------------------------


Letra:

G                             Am             E    Am
El sigue solo y sin rumbo, no tiene más que perder
G                            Am    F             E
que no le sigan pegando, que un día va a reaccionar

ESTRIBILLO
Dm                                   Am         E        Am
Y el que está arriba irá abajo, no va a quedar ni uno suelto
Dm                                    Am      F     E   Am
y el que está arriba irá abajo y no va a quedar ni uno suelto

                                         INTRO
G                             Am             E      Am
Volverá por lo que es suyo, no hay nada que lo detenga
G                            Am           F          E
y aunque lo tengan dormido, ya se empezó a despertar

ESTRIBILLO

A                 D                  E          A
Y la verdad, sin la verdad, no van a llegar muy lejos
A                 D                     E       A
porque ellos no pueden volar, no conocen el viento

ESTRIBILLO.

Bueno espro les sirva el intro de este gran tema de ntvg.. saludos
a todos los fans de ntvg.. aguante el bolso
Juan Frizzera  [juanjobolso77@

            
            
Suggest correction
Creating personal tab
Creating personal tab
You can edit any tab online and save it as your Personal.

You can edit, replace or remove any tab part or add personal notes – all changes will be seen only by you.

Personal tabs can be accessed anytime from any device, even offline.
Learn more »
Give kudos to tab author, rate the tab!
1 2 3 4 5
comments
print report bad tab
guest
Wanna post a correction for this tab? Suggest correction