Oops, an error
Loading. Please wait.

Ni Uno Suelto tab

version 2
version 2

Whole song

21 views 3 this week
no commentswrite comment
1 2 3 4 5
3 more votes to show rating
add to favorites
×
Save as Personal and add changes to this tab that will be seen only by you. Learn more ›
×
You can save this tab as Personal to edit and correct it or add notes. All changes will be seen only by you. Learn more »
launch autoscroll
font size
0
reset
how to read this tab
guitar tuner
edit
Autoscroll
slow
fast
+/-
esc
set tempo
stop
Hola, soy Lucas Paganini y mando esta versión arreglada
(según entiendo) del buen trabajo que hicieron Seba y Juan.
Saludos y aguante NTVG!


(Dm - Am - E - Am)

INTRO

e-1--3-3--1--3--1-1-1--0---5-4-5-6-7-4--0--/8-7--5-4-5-0------
b-3--5-5--3--5--3-3-3--1----------------------------------1---
g-2---------------------------------------------------------2-
d-------------------------------------------------------------
a-------------------------------------------------------------
E-------------------------------------------------------------

(Dm - Am - F - E - Am)

e-1--3--1-1---3---1-1-1-0---/8-7-5---5---4---4----5-0---------------
b-3--5--3-3---5---3-3-3-1----------6---6---5---5------1-------------
g-------------------------------------------------------2---1-2-1-0-
d-------------------------------------------------------------------
a-------------------------------------------------------------------
E-------------------------------------------------------------------


Letra:

G                      C               E          Am
  El sigue solo y sin rumbo, no tiene más que perder
G                    C    F                    E
  que no le sigan pegando, que un día va a reaccionar

ESTRIBILLO

Dm                            Am               E             Am
   Y el que está arriba irá abajo, no va a quedar ni uno suelto
Dm                            Am                  F        E  Am
   y el que está arriba irá abajo y no va a quedar ni uno suelto

INTRO

G                        C              E             Am
  Volverá por lo que es suyo, no hay nada que lo detenga
G                       C    F                  E
  y aunque lo tengan dormido, ya se empezó a despertar

ESTRIBILLO

A             D                   E                A
  Y la verdad, sin la verdad, no van a llegar muy lejos
A                D             E                A
  porque ellos no pueden volar, no conocen el viento

ESTRIBILLO.

            
            
Suggest correction
Creating personal tab
Creating personal tab
You can edit any tab online and save it as your Personal.

You can edit, replace or remove any tab part or add personal notes – all changes will be seen only by you.

Personal tabs can be accessed anytime from any device, even offline.
Learn more »
Give kudos to tab author, rate the tab!
1 2 3 4 5
comments
print report bad tab
guest
Wanna post a correction for this tab? Suggest correction