Oops, an error
Loading. Please wait.

Te Voy A Llevar Tab

version 1
version 1

Solo

Interactive

163 views 1 this week
no commentswrite comment
1 2 3 4 5
please rate
add to favorites
launch autoscroll
font size
0
reset
how to read this tab
guitar tuner
Autoscroll
slow
fast
+/-
esc
set tempo
stop
Help us to improve Ultimate-Guitar.com Take our survey!
×
Author
Difficulty
novice
Tempo = 120
Pista 1

Legend
L - tied note
x - dead note
h - hammer on/pull off
b - bend
s - slide
~ - vibrato
g - ghost note
> - accentuated note
t - trill
M - palm mute
. - staccato
P - popping (bass)
S - slapping (bass)
+ - tapping
W - wide vibrato
< - fade in
w - whammy bar
= - tremolo picking
v - brush up
^ - brush down
V - pick stroke up
n - pick stroke down


E |----------------------------|
B |----------------------------|
G |-----7----------------------|
D |--7b----------9~------------|
A |----------------------------|
E |----------------------------|


----------------------------------------------------|
----------------------------------------------------|
--------------------7-----------9b----9--7--9-------|
--9~----------------------9-------------------------|
----------------------------------------------------|
----------------------------------------------------|


----------------------------|--------------5--5s-7--7s---|
----------------------------|--------------7--7s-9--9s---|
--7~-------------------7----|----------------------------|
-----------9-----7----------|--9~------------------------|
--------------------9-------|----------------------------|
----------------------------|----------------------------|


--5--5s-7--7s-5--5s-7--7s---|--5--5s-7--7----------------|
--7--7s-9--9s-7--7s-9--9s---|--7--7s-9--9--7-------------|
----------------------------|-----------------9--7-------|
----------------------------|-----------------------7----|
----------------------------|----------------------------|
----------------------------|----------------------------|


----------------------------|----------------------------|
----------------------------|----------------------------|
--------------7-------------|-----9--7-----------7-------|
-----7--8--9-----9--7--8----|--9--------7--8--9-----9----|
--9-------------------------|----------------------------|
----------------------------|----------------------------|


--------7-----------7-------|--10-------------------7----|
--------7-----------7-------|--9-----7--9-----------7h---|
--9b-------------9b---------|-----------9--7-------------|
----------------------------|-----------------9~---------|
----------------------------|----------------------------|
----------------------------|----------------------------|


--7--------------------7----|--7--7----------------------|----------------|
--7--------9-----------7----|--7--7--9--9----------------|--10b10~--------|
--------7--9--7-------------|--------9--9--7-------------|----------------|
-----------------9~---------|-----------------9~---------|----------------|
----------------------------|----------------------------|----------------|
----------------------------|----------------------------|----------------|


--------------------------------------10------------|
--12b---12-10-12~---------------12----------12------|
----------------------------------------------------|
----------------------------------------------------|
----------------------------------------------------|
----------------------------------------------------|


--12b---12-10-12----10~-----------------------------||
--------------------------------------12------------||
----------------------------------------------------||
----------------------------------------------------||
----------------------------------------------------||
----------------------------------------------------||


---------------------------------------------------|
---------------------------------------------------|
o8-----------8-----9--------8----------------------|
o------------------------------------9-----7L------|
---------------------------------------------------|
---------------------------------------------------|


----------------------------------------------------|
----------------------------------------------------|
--------------------------------------9--------8L---|
--7~------------------------------------------------|
----------------------------------------------------|
----------------------------------------------------|


----------------------------------------------------|
----------------------------------------------------|
--8-----------9--------8----------------------------|
--------9-----------------------9-----11L-----------|
----------------------------------------------------|
----------------------------------------------------|


---------------------------||
---------------------------||
-----8--8-----------------o||
--11~---------------------o||
---------------------------||
---------------------------||


----------------------------------------------------|
----------------------------------------------------|
--8-----------8-----9--------8----------------------|
--------------------------------------9-----7L------|
----------------------------------------------------|
----------------------------------------------------|


----------------------------------------------------|
----------------------------------------------------|
--------------------------------------9--------8L---|
--7~------------------------------------------------|
----------------------------------------------------|
----------------------------------------------------|


----------------------------------------------------|
----------------------------------------------------|
--8-----------9--------8----------------------------|
--------9-----------------------9-----11L-----------|
----------------------------------------------------|
----------------------------------------------------|


----------------------------|-------|-------|-------||
----------------------------|-------|-------|-------||
-----8--8-----9--------11L--|--11L--|--11L--|--11~--||
--11~-----------------------|-------|-------|-------||
----------------------------|-------|-------|-------||
----------------------------|-------|-------|-------||
Suggest correction
Give kudos to tab author, rate the tab!
1 2 3 4 5
comments
print report bad tab
guest
You may want to rate the tab now too:
select rating
Wanna post a correction for this tab? Suggest correction