Oops, an error
Loading. Please wait.

Vivir Muriendo tab

version 2
version 2

Whole song

25 views 1 this week
no commentswrite comment
1 2 3 4 5
3 more votes to show rating
add to favorites
×
Save as Personal and add changes to this tab that will be seen only by you. Learn more ›
×
You can save this tab as Personal to edit and correct it or add notes. All changes will be seen only by you. Learn more »
launch autoscroll
font size
0
reset
how to read this tab
guitar tuner
edit
Autoscroll
slow
fast
+/-
esc
set tempo
stop
TONO: Gm

D#7
No te da miedo que ya no puedas dormir
Cm                        Gm
Con el diablo en el cuerpo
                       D#7
Esta confusión no se puede distinguir
Cm                    Gm
El cielo del infierno
                        D#7
Todo se mueve todo se vuelve canción
Cm                        Gm
Lo que se ve no es cierto
                                D#7
Parece euforia tan solo es un grito de dolor
Cm                      Gm
Solo te estas mintiendo

D#7             D7                 Gm
   Cuando ya estés cansado y te quieras ir
       D#7
Y no quede mas tiempo
Cm        F           Gm
 Resta vivir muriendo

Ya no te importa que esta bien y que esta mal
Vos no querías esto
Era cerrar los ojos y dejarte llevar
Pero te fuiste yendo

D#7             D7                 Gm
   Cuando ya estés cansado y te quieras ir
       D#7
Y no quede mas tiempo
Cm        F           Gm
 Resta vivir muriendo

Solo:
Gr.
E|-------------------------------------------------------|
B|----------------6--------------------------------------|
G|-----3---5/7-----5-5p3---5-5-3-------------------------|
D|--/5---5--------------5-------5------------------------|
A|----------------------------------5p3p1p0--------------|
E|----------------------------------------------1/3~-----|

E|-----------------------15/-----------------------------|
B|--------8-8-------8------------------10-10-8~--11p8----|
G|--10b12-----10b12-----(15/)----10b12-------------------|
D|-------------------------------------------------------|
A|-------------------------------------------------------|
E|-------------------------------------------------------|
Saxo:
E|-------------------------------------------------------|
B|-------11-13-11-13b14r13-13-11----------11-------------|
G|--/12--------------------------12-10-12----12----------|
D|-------------------------------------------------------|
A|-------------------------------------------------------|
E|-------------------------------------------------------|
Gr.
E|---------------------------------------------------|
B|--(---3)-6-3------------------------------6--------|
G|--(5b7-)------5-3-5b7r~---------------------5------|No se escucha mucho
D|---------------------------------------------------|En medio del saxo
A|---------------------------------------------------|
E|---------------------------------------------------|
Saxo:
E|---------------------------------------------13------------------|
B|-----11-13-13-11-13/14-13-----13b14r13-13-11----13-11-11-13-10~--|
G|-/12-------------------------------------------------------------|
D|-----------------------------------------------------------------|
A|-----------------------------------------------------------------|
E|-----------------------------------------------------------------|

Todo se mueve todo se vuelve canción
Lo que ve no es cierto
Parece euforia tan solo es un grito de dolor
Solo te estas mintiendo

Cuando ya estés cansado y te quieras ir    
Y no quede más tiempo                      x2
Resta vivir muriendo                       

  D#7 Cm  Gm
E|-3-|-3-|-3-|
B|-2-|-4-|-3-|
G|-3-|-5-|-3-|
D|-1-|-5-|-5-|
A|-x-|-3-|-5-|
E|-x-|-x-|-3-|

En el estribillo hagan los acordes en 5ta o Power Chords:
  D#5  D  Gm  Cm   F
E|-x-|-x-|-x-|-x-|-x-|
B|-x-|-x-|-x-|-x-|-x-|
G|-8-|-7-|-x-|-5-|-x-|
D|-8-|-7-|-5-|-5-|-3-|
A|-6-|-5-|-5-|-3-|-3-|
E|-x-|-x-|-3-|-x-|-1-|

(-X-)= Nota opcional
(-~-)= Vibrato
(-b-)= Levantar cuerda
(-r-)= Soltar/bajar cuerda

Cualquier cosa: agustin_mrgo@

Suggest correction
Creating personal tab
Creating personal tab
You can edit any tab online and save it as your Personal.

You can edit, replace or remove any tab part or add personal notes – all changes will be seen only by you.

Personal tabs can be accessed anytime from any device, even offline.
Learn more »
Give kudos to tab author, rate the tab!
1 2 3 4 5
comments
print report bad tab
guest
Wanna post a correction for this tab? Suggest correction