Oops, an error
Loading. Please wait.

Volar tab

25 views 1 this week
no commentswrite comment
1 2 3 4 5
3 more votes to show rating
add to favorites
×
Save as Personal and add changes to this tab that will be seen only by you. Learn more ›
×
You can save this tab as Personal to edit and correct it or add notes. All changes will be seen only by you. Learn more »
launch autoscroll
font size
0
reset
how to read this tab
guitar tuner
edit
Autoscroll
slow
fast
+/-
esc
set tempo
stop
INTRO: Am - G - Dm - C - E

Am              G
 Cuantas garantías querés?
Dm            C     E
 Solo estas atado...
Am        G
 Una sola vida tenes
Dm                    C    E
 Por qué esperar sentado?
Am             G
 Si la muerte llega una vez
Dm                    G    E
 Para que estar preparado?
Am
 Que el destino está escrito
 G
 Eso es mentira también,
Dm               C
 Te mantiene apagado...
             G
 Yo lo que quiero es volar,

CORO:
C
Volar
G
Prefiero volar
Dm      C  E
Volar...

Am

2do Verso:
Am                         G
 Tal vez es más fácil quedarse a mirar
Dm                   C   E
 Pensando en otra cosa
Am                    G
 Dudando de si está bien o está mal
Dm               C
 Pero eso que te importa
       G
 Si yo lo que quiero es volar,

CORO:
C
Volar
G
Prefiero volar
Dm      C  E
Volar...
C
Volar
G
Prefiero volar
Dm      C  E
Volar...

e|--------------------------------------------------
B|----------5--8-5-8/10----12-13-12-10----10-12-----
G|------5h7----------------------------12-------12--
D|--5h7---------------------------------------------
A|--------------------------------------------------
E|--------------------------------------------------

-------------10-12-13-12-10---------15------------------
-----10-12-13----------------13-15b16-16r15--13-12-13-15
--12----------------------------------------------------
--------------------------------------------------------
--------------------------------------------------------
--------------------------------------------------------

------------------------------------10---12--17|
-13-12-10-13-12-10----10-12-13-----------|
----------------------12-----------------------|
-----------------------------------------------|
-----------------------------------------------|
-----------------------------------------------|


(Solo de teclado)

F                      Dm
Y más allá no hay nada
Am          C
No hay nada...
G
Yo lo que quiero es volar,

C
Volar
G
Prefiero volar
Dm      C  E
Volar...
C
Volar
G
Prefiero volar
Dm      C  E
Volar...

            
            
Suggest correction
Creating personal tab
Creating personal tab
You can edit any tab online and save it as your Personal.

You can edit, replace or remove any tab part or add personal notes – all changes will be seen only by you.

Personal tabs can be accessed anytime from any device, even offline.
Learn more »
Give kudos to tab author, rate the tab!
1 2 3 4 5
comments
print report bad tab
guest
Wanna post a correction for this tab? Suggest correction