Oops, an error
Loading. Please wait.

Chasing Rainbows Bass Tab

version 1
version 1

Whole song

Interactive

2,110 views 1 this week
2 commentsread comments
1 2 3 4 5
excellent!
x 5
add to favorites
launch autoscroll
font size
0
reset
guitar tuner
Autoscroll
slow
fast
+/-
esc
set tempo
stop
Help us to improve Ultimate-Guitar.com Take our survey!
×
Artist: No Use For A Name
Song: Chasing Rainbows
Album: More Betterness
Tabbed By: Mike O'Mara
E-mail: volcom1218@hotmail.com

Intro:
G|--9--------------------------------------------------------------|
D|---10101010101010--12----------------10----------------10---9~~--|
A|---------------------10101010101010----12121212121212----888-----|
E|-----------------------------------------------------------------|

G|--9--------------------------------------------------------------|
D|---10101010101010--12----------------10--------------------------|
A|---------------------10101010101010----12121212121212--8-7-5-55~~|
E|-----------------------------------------------------------------|

Verse:
G|--------------------------------------------------------------------------|
D|--------------------------------------------------------------------------|
A|--33333333----------------------------33333333----------------------------|
E|-----------33333333-55555555-11111111----------55555555-00000000-11111111-|

G|--------------------------------------------------------------------------|
D|--------------------------------------------------------------------------|
A|--33333333----------------------------33333333----------------------------|
E|-----------33333333-55555555-11111111----------55555555-11111111-33333333-|

Chorus: x2 (seond time, dont play last 2 bars)
G|--------------------------------------------------------------------------|
D|--------------------------------------------------------------------------|
A|--00000000-------------------33332222-00000000----------------------------|
E|-----------11111111-33333333-------------------33333333-11111111-33333333-|

Post Chorus 1:
G|----------------------|
D|----------------------|
A|--5555-3333-1111------|
E|-----------------1111-|

First Half Of Intro: (for first guitar solo)

Verse:

Chorus: x2  (seond time, dont play last 2 bars)

Post Chorus 2:
G|--------------------------------------------------------------|
D|--------------------------------------------------------------|
A|--5555-3333-1111------3333-2222-0000------1111-0000-----------|
E|-----------------1111----------------3333-----------3333-1111-|

Intro: (for second guitar solo)

Outro:
G|--------|
D|--------|
A|--5553~~|
E|--------|
Suggest correction
What's this?
You can suggest a correction to this tab. Community and Mods will review your correction and vote to approve or reject it.
comments
print report bad tab
2 comments total.
+1 reply
chrisjenks 2,378 wrote on February 7 2008, 09:54 am

Verse:
G|--------------------------------------------------------------------------|
D|--------------------------------------------------------------------------|
A|--33333333----------------------------33333333----------------------------|
E|-----------33333333-55555555-11111111----------33333333-00000000-11111111-|

G|--------------------------------------------------------------------------|
D|--------------------------------------------------------------------------|
A|--33333333----------------------------33333333----------------------------|
E|-----------33333333-55555555-11111111----------33333333-11111111-33333333-|

0 reply
chrisjenks 2,378 wrote on February 7 2008, 10:09 am

I think there is a little fill at the end of the first chorus riff with the drum bit:

G|--------------------------------------------------------------------------------|
D|--------------------------------------------------------------------------------|
A|--00000000-------------------33332222-00000000---------------------------01310--|
E|-----------11111111-33333333-------------------33333333-11111111-3-333-3------3-|

guest
You may want to rate the tab now too:
select rating
Please do not post tabs as comments. Select "correction" instead!