Oops, an error
Loading. Please wait.

Chasing Rainbows tab

version 2
version 2

Whole song

Interactive

5,184 views 1 this week
2 commentsread comments
1 2 3 4 5
x 5
add to favorites
×
Save as Personal and add changes to this tab that will be seen only by you. Learn more ›
×
You can save this tab as Personal to edit and correct it or add notes. All changes will be seen only by you. Learn more »
launch autoscroll
font size
0
reset
how to read this tab
guitar tuner
edit
Autoscroll
slow
fast
+/-
esc
set tempo
stop
Author
Difficulty
Band: No Use For A Name
Song: Chasing Rainbows
Album: More Betterness

by titoNoFX - titonofx@gmail.com
date: 19/11/05

Here's a great song from No Use For A Name. I think that the solo isn't 100% correct but 
it sounds very good.

GUITAR N°1
~~~~~~~~~~
Intro
e|---------------------------------------------------------------------|
B|---------------------------------------------------------------------|
G|5~----------55512~----------121212---------------10~----------101010-|
D|x-----------xxxx------------x-x-x-7~----------777x------------x-x-x--|
A|3~----------33310~----------101010x-----------xxx8~-----------8-8-8--|
E|----------------------------------5~----------555--------------------|

e|---------------------------------------------------------------------|
B|---------------------------------------------------------------------|
G|5~----------55512~----------121212-----------------------------------|
D|x-----------xxxx------------x-x-x-7~--------------10---10---7---777--|
A|3~----------33310~----------101010x---------------8----7----5---555--|
E|----------------------------------5~---------------------------------|

Verse
   | . . . . . . . | . . . . . . . | . . . . . . . | . . . . . . .
e|-----------------------------------------------------------------|
B|-----------------------------------------------------------------|
G|5--5-555-5-5-555-------------------------------------------------|
D|5--5-555-5-5-5555--5-555-5-5-5557--7-777-7-7-7773--3-333-3-3-333-|
A|3--3-333-3-3-3335--5-555-5-5-5557--7-777-7-7-7773--3-333-3-3-333-|
E|----------------3--3-333-3-3-3335--5-555-5-5-5551--1-111-1-1-111-|

   | . . . . . . . | . . . . . . . | . . . . . . . | . . . . . . .
e|-----------------------------------------------------------------|
B|-----------------------------------------------------------------|
G|5--5-555-5-5-555-------------------------------------------------|
D|5--5-555-5-5-5555--5-555-5-5-5552--2-222-2-2-2223--3-333-3-3-333-|
A|3--3-333-3-3-3335--5-555-5-5-5552--2-222-2-2-2223--3-333-3-3-333-|
E|----------------3--3-333-3-3-3330--0-000-0-0-0001--1-111-1-1-111-|

   | . . . . . . . | . . . . . . . | . . . . . . . | . . . . . . .
e|-----------------------------------------------------------------|
B|-----------------------------------------------------------------|
G|5--5-555-5-5-555-------------------------------------------------|
D|5--5-555-5-5-5555--5-555-5-5-5557--7-777-7-7-7773--3-333-3-3-333-|
A|3--3-333-3-3-3335--5-555-5-5-5557--7-777-7-7-7773--3-333-3-3-333-|
E|----------------3--3-333-3-3-3335--5-555-5-5-5551--1-111-1-1-111-|

   | . . . . . . . | . . . . . . . | . . . . . . . |  .  .  .  .  .  .  .
e|-------------------------------------------------------------------------|
B|-------------------------------------------------------------------------|
G|5--5-555-5-5-555---------------------------------------------------------|
D|5--5-555-5-5-5555--5-555-5-5-5553--3-333-3-3-3335--------1010101010101010|
A|3--3-333-3-3-3335--5-555-5-5-5553--3-333-3-3-3335--------8-8-8-8-8-8-8-8-|
E|----------------3--3-333-3-3-3331--1-111-1-1-1113------------------------|

Chorus
  | . . . . . . . | . . . . . . . | . . . . . . . | . . . . . . .
e|----------------------------------------------------------------|
B|----------------------------------------------------------------|
G|------------------------------------------------5-55-55-4-44-44-|
D|7-77-77-7-77-77-3-33-33-3-33-33-5-55-55-5-55-55-5-55-55-5-55-55-|
A|7-77-77-7-77-77-3-33-33-3-33-33-5-55-55-5-55-55-3-33-33-2-22-22-|
E|5-55-55-5-55-55-1-11-11-1-11-11-3-33-33-3-33-33-----------------|

  | . . . . . . . | . . . . . . . | . . . . . . . | . . . . . . .
e|----------------------------------------------------------------|
B|----------------------------------------------------------------|
G|----------------------------------------------------------------|
D|7-77-77-7-77-77-5-55-55-5-55-55-3-33-33-3-33-33-5-55-55-55555555|
A|7-77-77-7-77-77-5-55-55-5-55-55-3-33-33-3-33-33-5-55-55-55555555|
E|5-55-55-5-55-55-3-33-33-3-33-33-1-11-11-1-11-11-3-33-33-33333333|

  | . . . . . . . | . . . . . . . | . . . . . . . | . . . . . . .
e|----------------------------------------------------------------|
B|----------------------------------------------------------------|
G|------------------------------------------------5-5-555-4-4-444-|
D|7-77-77-7-77-77-3-33-33-3-33-33-5-55-55-5-55-55-5-5-555-5-5-555-|
A|7-77-77-7-77-77-3-33-33-3-33-33-5-55-55-5-55-55-3-3-333-2-2-222-|
E|5-55-55-5-55-55-1-11-11-1-11-11-3-33-33-3-33-33-----------------|

  | . . . . . . . | . . . . . . . | . . . . . . . | . . . . . . .
e|----------------------------------------------------------------|
B|----------------------------------------------------------------|
G|--------------------------------7-77-7775-55-5553-33-333--------|
D|7-77-77-7-77-77-5-55-55-5-55-55-7-77-7775-55-5553-33-3333-33-333|
A|7-77-77-7-77-77-5-55-55-5-55-55-5-55-5553-33-3331-11-1113-33-333|
E|5-55-55-5-55-55-3-33-33-3-33-33-------------------------1-11-111|

Riff
   | . . . . . . . | . . . . . . . | . . . . . . . | . . . . . . .
e|-----------------------------------------------------------------|
B|-----------------------------------------------------------------|
G|5--5-555-5-5-555-------------------------------------------------|
D|5--5-555-5-5-5555--5-555-5-5-5557--7-777-7-7-7773------------1010|
A|3--3-333-3-3-3335--5-555-5-5-5557--7-777-7-7-7773------------8-7-|
E|----------------3--3-333-3-3-3335--5-555-5-5-5551----------------|

Verse
   | . . . . . . . | . . . . . . . | . . . . . . . | . . . . . . .
e|-----------------------------------------------------------------|
B|-----------------------------------------------------------------|
G|5--5-555-5-5-555-------------------------------------------------|
D|5--5-555-5-5-5555--5-555-5-5-5557--7-777-7-7-7773--3-333-3-3-333-|
A|3--3-333-3-3-3335--5-555-5-5-5557--7-777-7-7-7773--3-333-3-3-333-|
E|----------------3--3-333-3-3-3335--5-555-5-5-5551--1-111-1-1-111-|

   | . . . . . . . | . . . . . . . | . . . . . . . | . . . . . . .
e|-----------------------------------------------------------------|
B|-----------------------------------------------------------------|
G|5--5-555-5-5-555-------------------------------------------------|
D|5--5-555-5-5-5555--5-555-5-5-5552--2-222-2-2-2223--3-333-3-3-333-|
A|3--3-333-3-3-3335--5-555-5-5-5552--2-222-2-2-2223--3-333-3-3-333-|
E|----------------3--3-333-3-3-3330--0-000-0-0-0001--1-111-1-1-111-|

   | . . . . . . . | . . . . . . . | . . . . . . . | . . . . . . .
e|-----------------------------------------------------------------|
B|-----------------------------------------------------------------|
G|5--5-555-5-5-555-------------------------------------------------|
D|5--5-555-5-5-5555--5-555-5-5-5557--7-777-7-7-7773--3-333-3-3-333-|
A|3--3-333-3-3-3335--5-555-5-5-5557--7-777-7-7-7773--3-333-3-3-333-|
E|----------------3--3-333-3-3-3335--5-555-5-5-5551--1-111-1-1-111-|

   | . . . . . . . | . . . . . . . | . . . . . . . |  .  .  .  .  .  .  .
e|-------------------------------------------------------------------------|
B|-------------------------------------------------------------------------|
G|5--5-555-5-5-555---------------------------------------------------------|
D|5--5-555-5-5-5555--5-555-5-5-5553--3-333-3-3-3335--------1010101010101010|
A|3--3-333-3-3-3335--5-555-5-5-5553--3-333-3-3-3335--------8-8-8-8-8-8-8-8-|
E|----------------3--3-333-3-3-3331--1-111-1-1-1113------------------------|

Chorus N°2
  | . . . . . . . | . . . . . . . | . . . . . . . | . . . . . . .
e|----------------------------------------------------------------|
B|----------------------------------------------------------------|
G|------------------------------------------------5-55-55-4-44-44-|
D|7-77-77-7-77-77-3-33-33-3-33-33-5-55-55-5-55-55-5-55-55-5-55-55-|
A|7-77-77-7-77-77-3-33-33-3-33-33-5-55-55-5-55-55-3-33-33-2-22-22-|
E|5-55-55-5-55-55-1-11-11-1-11-11-3-33-33-3-33-33-----------------|

  | . . . . . . . | . . . . . . . | . . . . . . . | . . . . . . .
e|----------------------------------------------------------------|
B|----------------------------------------------------------------|
G|----------------------------------------------------------------|
D|7-77-77-7-77-77-5-55-55-5-55-55-3-33-33-3-33-33-5-55-55-55555555|
A|7-77-77-7-77-77-5-55-55-5-55-55-3-33-33-3-33-33-5-55-55-55555555|
E|5-55-55-5-55-55-3-33-33-3-33-33-1-11-11-1-11-11-3-33-33-33333333|

  | . . . . . . . | . . . . . . . | . . . . . . . | . . . . . . .
e|----------------------------------------------------------------|
B|----------------------------------------------------------------|
G|------------------------------------------------5-5-555-4-4-444-|
D|7-77-77-7-77-77-3-33-33-3-33-33-5-55-55-5-55-55-5-5-555-5-5-555-|
A|7-77-77-7-77-77-3-33-33-3-33-33-5-55-55-5-55-55-3-3-333-2-2-222-|
E|5-55-55-5-55-55-1-11-11-1-11-11-3-33-33-3-33-33-----------------|

  | . . . . . . . | . . . . . . . | . . . . . . . | . . . . . . .
e|----------------------------------------------------------------|
B|----------------------------------------------------------------|
G|--------------------------------7-77-7775-55-5553-33-333--------|
D|7-77-77-7-77-77-5-55-55-5-55-55-7-77-7775-55-5553-33-3333-33-333|
A|7-77-77-7-77-77-3-33-33-3-33-33-5-55-5553-33-3331-11-1113-33-333|
E|5-55-55-5-55-55-1-11-11-1-11-11-------------------------1-11-111|

   | . . . . . . . | . . . . . . . | . . . . . . . | . . . . . . .
e|-----------------------------------------------------------------|
B|-----------------------------------------------------------------|
G|5--55-55-4-44-44-------------------------------------------------|
D|5--55-55-5-55-55-7-77-77-5-55-55-8-88-88-7-77-77-5-55-55-10101010|
A|3--33-33-2-22-22-7-77-77-5-55-55-8-88-88-8-88-88-5-55-55-8-8-8-8-|
E|-----------------5-55-55-3-33-33-6-66-66-5-55-55-3-33-33---------|

Solo Base
   | . . . . . . . | . . . . . . . | . . . . . . . | . . . . . . .
e|-----------------------------------------------------------------|
B|-----------------------------------------------------------------|
G|5--5-555-5-5-555-------------------------------------------------|
D|5--5-555-5-5-5555--5-555-5-5-5557--7-777-7-7-7773--3-333-3-3-333-|
A|3--3-333-3-3-3335--5-555-5-5-5557--7-777-7-7-7773--3-333-3-3-333-|
E|----------------3--3-333-3-3-3335--5-555-5-5-5551--1-111-1-1-111-|

   | . . . . . . . | . . . . . . . | . . . . . . . | . . . . . . .
e|-----------------------------------------------------------------|
B|-----------------------------------------------------------------|
G|5--5-555-5-5-555-------------------------------------------------|
D|5--5-555-5-5-5555--5-555-5-5-5557----------------10--10--7--7775-|
A|3--3-333-3-3-3335--5-555-5-5-5557----------------8---7---5--5553-|
E|----------------3--3-333-3-3-3335--------------------------------|


----------------------------------------------------------------------------
~~~~~~~~~~~~~~~~~~~~~~~~~~~~~~~~~~~~~~~~~~~~~~~~~~~~~~~~~~~~~~~~~~~~~~~~~~~~
----------------------------------------------------------------------------
~~~~~~~~~~~~~~~~~~~~~~~~~~~~~~~~~~~~~~~~~~~~~~~~~~~~~~~~~~~~~~~~~~~~~~~~~~~~
----------------------------------------------------------------------------

GUITAR N°2
~~~~~~~~~~
  | . . . . . . . | . . . . . . . | . . . . . . . | . . . . . . .
e|----------------------------------------------------------------|
B|----------------------------------------------------------------|
G|----------------------------------------------------------101010|
D|----------------------------------------------------------x-x-x-|
A|----------------------------------------------------------8-8-8-|
E|----------------------------------------------------------------|

e|-------------------------------------------------------------------|
B|-------------------------------------------------------------------|
G|9~----------9997~-----------7775~----------------------------------|
D|x-----------xxxx------------xxxx----------------10---10---7---777--|
A|7~----------7775~-----------5553~---------------8----7----5---555--|
E|-------------------------------------------------------------------|

Verse
   | . . . . . . . | . . . . . . . | . . . . . . . | . . . . . . .
e|-----------------------------------------------------------------|
B|-----------------------------------------------------------------|
G|5--5-xx5-xx5-xx5-------------------------------------------------|
D|5--5-xx5-xx5-xx55--5-xx5-xx5-xx57--7-xx7-xx7-xx73--3-xx3-xx3-xx3-|
A|3--3-xx3-xx3-xx35--5-xx5-xx5-xx57--7-xx7-xx7-xx73--3-xx3-xx3-xx3-|
E|----------------3--3-xx3-xx3-xx35--5-xx5-xx5-xx51--1-xx1-xx1-xx1-|

   | . . . . . . . | . . . . . . . | . . . . . . . | . . . . . . .
e|-----------------------------------------------------------------|
B|-----------------------------------------------------------------|
G|5--5-xx5-xx5-xx5--------------------------------1414141515151212-|
D|5--5-xx5-xx5-xx55--5-xx5-xx5-xx59--9-xx9-xx9-xx9x-x-x-x-x-x-x-x--|
A|3--3-xx3-xx3-xx35--5-xx5-xx5-xx57--7-xx7-xx7-xx71212121313131010-|
E|----------------3--3-xx3-xx3-xx3---------------------------------|

   | . . . . . . . | . . . . . . . | . . . . . . . | . . . . . . .
e|-----------------------------------------------------------------|
B|-----------------------------------------------------------------|
G|5--5-xx5-xx5-xx5-------------------------------------------------|
D|5--5-xx5-xx5-xx55--5-xx5-xx5-xx57--7-xx7-xx7-xx73--3-xx3-xx3-xx3-|
A|3--3-xx3-xx3-xx35--5-xx5-xx5-xx57--7-xx7-xx7-xx73--3-xx3-xx3-xx3-|
E|----------------3--3-xx3-xx3-xx35--5-xx5-xx5-xx51--1-xx1-xx1-xx1-|

   | . . . . . . . | . . . . . . . | . . . . . . . |  .  .  .  .  .  .  .
e|-------------------------------------------------------------------------|
B|-------------------------------------------------------------------------|
G|5--5-xx5-xx5-xx5---------------------------------------------------------|
D|5--5-xx5-xx5-xx55--5-xx5-xx5-xx53--3-xx3-xx3-xx35--------1010101010101010|
A|3--3-xx3-xx3-xx35--5-xx5-xx5-xx53--3-xx3-xx3-xx35--------8-8-8-8-8-8-8-8-|
E|----------------3--3-xx3-xx3-xx31--1-xx1-xx1-xx13------------------------|

Chorus
  | . . . . . . . | . . . . . . . | . . . . . . . | . . . . . . .
e|----------------------------------------------------------------|
B|----------------------------------------------------------------|
G|----------------------------------------------------------------|
D|7-77-77-7-77-77-3-33-33-3-33-33-5-55-55-5-55-55-5-55-55-5-55-55-|
A|7-77-77-7-77-77-3-33-33-3-33-33-5-55-55-5-55-55-3-33-33-2-22-22-|
E|5-55-55-5-55-55-1-11-11-1-11-11-3-33-33-3-33-33-----------------|

  | . . . . . . . | . . . . . . . | . . . . . . . | . . . . . . .
e|----------------------------------------------------------------|
B|----------------------------------------------------------------|
G|----------------------------------------------------------------|
D|7-77-77-7-77-77-121212121212121210101010101010101212121212121212|
A|7-77-77-7-77-77-10101010101010108-8-8-8-8-8-8-8-1010101010101010|
E|5-55-55-5-55-55-------------------------------------------------|

  | . . . . . . . | . . . . . . . | . . . . . . . | . . . . . . .
e|----------------------------------------------------------------|
B|----------------------------------------------------------------|
G|----------------------------------------------------------------|
D|7-77-77-7-77-77-101010101010101012121212121212125-55-55-5-55-55-|
A|7-77-77-7-77-77-8-8-8-8-8-8-8-8-10101010101010103-33-33-2-22-22-|
E|5-55-55-5-55-55-------------------------------------------------|

  | . . . . . . . | . . . . . . . | . . . . . . . | . . . . . . .
e|----------------------------------------------------------------|
B|----------------------------------------------------------------|
G|----------------------------------------------------------------|
D|7-77-77-7-77-77-12121212121212127-77-77-5-55-55-3-33-33-10101010|
A|7-77-77-7-77-77-10101010101010105-55-55-3-33-33-1-11-11-8-8-8-8-|
E|5-55-55-5-55-55-------------------------------------------------|

Solo Base
   | . . . . . . . | . . . . . . . | . . . . . . . | . . . . . . .
e|-----------------------------------------------------------------|
B|-----------------------------------------------------------------|
G|5--5-xx5-xx5-xx5-------------------------------------------------|
D|5--5-xx5-xx5-xx55--5-xx5-xx5-xx57--7-xx7-xx7-xx73------------1010|
A|3--3-xx3-xx3-xx35--5-xx5-xx5-xx57--7-xx7-xx7-xx73------------8-7-|
E|----------------3--3-xx3-xx3-xx35--5-xx5-xx5-xx51----------------|

Verse
   | . . . . . . . | . . . . . . . | . . . . . . . | . . . . . . .
e|-----------------------------------------------------------------|
B|-----------------------------------------------------------------|
G|5--5-xx5-xx5-xx5-------------------------------------------------|
D|5--5-xx5-xx5-xx55--5-xx5-xx5-xx57--7-xx7-xx7-xx73--3-xx3-xx3-xx3-|
A|3--3-xx3-xx3-xx35--5-xx5-xx5-xx57--7-xx7-xx7-xx73--3-xx3-xx3-xx3-|
E|----------------3--3-xx3-xx3-xx35--5-xx5-xx5-xx51--1-xx1-xx1-xx1-|

   | . . . . . . . | . . . . . . . | . . . . . . . | . . . . . . .
e|-----------------------------------------------------------------|
B|-----------------------------------------------------------------|
G|5--5-xx5-xx5-xx5--------------------------------1414141515151212-|
D|5--5-xx5-xx5-xx55--5-xx5-xx5-xx59--9-xx9-xx9-xx9x-x-x-x-x-x-x-x--|
A|3--3-xx3-xx3-xx35--5-xx5-xx5-xx57--7-xx7-xx7-xx71212121313131010-|
E|----------------3--3-xx3-xx3-xx3---------------------------------|

   | . . . . . . . | . . . . . . . | . . . . . . . | . . . . . . .
e|-----------------------------------------------------------------|
B|-----------------------------------------------------------------|
G|5--5-xx5-xx5-xx5-------------------------------------------------|
D|5--5-xx5-xx5-xx55--5-xx5-xx5-xx57--7-xx7-xx7-xx73--3-xx3-xx3-xx3-|
A|3--3-xx3-xx3-xx35--5-xx5-xx5-xx57--7-xx7-xx7-xx73--3-xx3-xx3-xx3-|
E|----------------3--3-xx3-xx3-xx35--5-xx5-xx5-xx51--1-xx1-xx1-xx1-|

   | . . . . . . . | . . . . . . . | . . . . . . . |  .  .  .  .  .  .  .
e|-------------------------------------------------------------------------|
B|-------------------------------------------------------------------------|
G|5--5-xx5-xx5-xx5---------------------------------------------------------|
D|5--5-xx5-xx5-xx55--5-xx5-xx5-xx53--3-xx3-xx3-xx35--------1010101010101010|
A|3--3-xx3-xx3-xx35--5-xx5-xx5-xx53--3-xx3-xx3-xx35--------8-8-8-8-8-8-8-8-|
E|----------------3--3-xx3-xx3-xx31--1-xx1-xx1-xx13------------------------|

Chorus
  | . . . . . . . | . . . . . . . | . . . . . . . | . . . . . . .
e|----------------------------------------------------------------|
B|----------------------------------------------------------------|
G|----------------------------------------------------------------|
D|7-77-77-7-77-77-101010101010101012121212121212125-55-55-5-55-55-|
A|7-77-77-7-77-77-8-8-8-8-8-8-8-8-10101010101010103-33-33-2-22-22-|
E|5-55-55-5-55-55-------------------------------------------------|

  | . . . . . . . | . . . . . . . | . . . . . . . | . . . . . . .
e|----------------------------------------------------------------|
B|----------------------------------------------------------------|
G|----------------------------------------------------------------|
D|7-77-77-7-77-77-121212121212121210101010101010101212121212121212|
A|7-77-77-7-77-77-10101010101010108-8-8-8-8-8-8-8-1010101010101010|
E|5-55-55-5-55-55-------------------------------------------------|

  | . . . . . . . | . . . . . . . | . . . . . . . | . . . . . . .
e|----------------------------------------------------------------|
B|----------------------------------------------------------------|
G|----------------------------------------------------------------|
D|7-77-77-7-77-77-101010101010101012121212121212125-55-55-5-55-55-|
A|7-77-77-7-77-77-8-8-8-8-8-8-8-8-10101010101010103-33-33-2-22-22-|
E|5-55-55-5-55-55-------------------------------------------------|

  | . . . . . . . | . . . . . . . | . . . . . . . | . . . . . . .
e|----------------------------------------------------------------|
B|----------------------------------------------------------------|
G|----------------------------------------------------------------|
D|7-77-77-7-77-77-12121212121212127-77-77-5-55-55-3-33-33-3-33-33-|
A|7-77-77-7-77-77-10101010101010105-55-55-3-33-33-1-11-11-3-33-33-|
E|5-55-55-5-55-55-----------------------------------------1-11-11-|

   | . . . . . . . | . . . . . . . | . . . . . . . | . . . . . . .
e|-----------------------------------------------------------------|
B|-----------------------------------------------------------------|
G|-----------------------------------------------------------------|
D|5--55-55-5-55-55-----------------------------------------10101010|
A|3--33-33-2-22-22-7-77-77-5-55-55-8-88-88-8-88-88-5-55-55-8-8-8-8-|
E|-----------------5-55-55-3-33-33-6-66-66-5-55-55-3-33-33---------|

Solo Base
   | . . . . . . . | . . . . . . . | . . . . . . . | . . . . . . .
e|-----------------------------------------------------------------|
B|-----------------------------------------------------------------|
G|5--5-xx5-xx5-xx5-------------------------------------------------|
D|5--5-xx5-xx5-xx55--5-xx5-xx5-xx57--7-xx7-xx7-xx73--3-xx3-xx3-xx3-|
A|3--3-xx3-xx3-xx35--5-xx5-xx5-xx57--7-xx7-xx7-xx73--3-xx3-xx3-xx3-|
E|----------------3--3-xx3-xx3-xx35--5-xx5-xx5-xx51--1-xx1-xx1-xx1-|

   | . . . . . . . | . . . . . . . | . . . . . . . | . . . . . . .
e|-----------------------------------------------------------------|
B|-----------------------------------------------------------------|
G|5--5-xx5-xx5-xx5-------------------------------------------------|
D|5--5-xx5-xx5-xx55--5-xx5-xx5-xx53----------------10--10--7---7775|
A|3--3-xx3-xx3-xx35--5-xx5-xx5-xx53----------------8---7---5---5553|
E|----------------3--3-xx3-xx3-xx31--------------------------------|

----------------------------------------------------------------------------
~~~~~~~~~~~~~~~~~~~~~~~~~~~~~~~~~~~~~~~~~~~~~~~~~~~~~~~~~~~~~~~~~~~~~~~~~~~~
----------------------------------------------------------------------------
~~~~~~~~~~~~~~~~~~~~~~~~~~~~~~~~~~~~~~~~~~~~~~~~~~~~~~~~~~~~~~~~~~~~~~~~~~~~
----------------------------------------------------------------------------

Solos and other stuff
~~~~~~~~~~~~~~~~~~~~~
Guitar playing over choruses second part
  | . . . . . . . | . . . . . . . | . . . . . . . | . . . . . . .
e|----------------------------------------------------------------|
B|----------------------------------------------------------------|
G|1515151515151515151515151515151514141414141414141515151514141414|
D|x-x-x-x-x-x-x-x-x-x-x-x-x-x-x-x-x-x-x-x-x-x-x-x-x-x-x-x-x-x-x-x-|
A|1313131313131313131313131313131312121212121212121313131312121212|
E|----------------------------------------------------------------|

  | . . . . . . . | . . . . . . . | . . . . . . . | . . . . . . .
e|----------------------------------------------------------------|
B|----------------------------------------------------------------|
G|15151515151515151414141414141414--------------------------------|
D|x-x-x-x-x-x-x-x-x-x-x-x-x-x-x-x---------------------------------|
A|13131313131313131212121212121212--------------------------------|
E|----------------------------------------------------------------|

Solo N°1 - Guitar 1
Find out the time listening to the song
(the solo is played with a slider)
e|----------------------------------------------------------------|
B|----------------------------------------------------------------|
G|7/9/7/9-9/10-9/10/9-----17--21/19-19/17-17/19/17----------------|
D|-------------------10/17----------------------------------------|
A|----------------------------------------------------------------|
E|----------------------------------------------------------------|

Solo N°1 - Guitar 2
(with slider too)
e|----------------------------------------------------------------|
B|----------------------------------------------------------------|
G|----------------------------12/10-10/9--9/10/9------------------|
D|----------------------------------------------------------------|
A|----------------------------------------------------------------|
E|----------------------------------------------------------------|

Final Solo - Guitar 1
(with slider too)
e|-------------------------------------------------------------------|
B|-------------------------------------------------------------------|
G|9-9/12/9-7--4-4/5-5/2--0--/9-/12/9/7-4/5---10/9--14/12-12/10-9/10/9|
D|-------------------------------------------------------------------|
A|-------------------------------------------------------------------|
E|-------------------------------------------------------------------|

Final Solo - Guitar 2
(with slider too)
e|------------------------------------------------------------------------|
B|--------------------------------------------------22/20--18/17-17/18/17-|
G|------17/16--12/14----14---12/17---17/16---12/14------------------------|
D|------------------------------------------------------------------------|
A|------------------------------------------------------------------------|
E|------------------------------------------------------------------------|

that's all friends
Suggest correction
Creating personal tab
Creating personal tab
You can edit any tab online and save it as your Personal.

You can edit, replace or remove any tab part or add personal notes – all changes will be seen only by you.

Personal tabs can be accessed anytime from any device, even offline.
Learn more »
comments
print report bad tab
2 comments total.
0 reply
FidoFletch 52 Sep 05, 2006 07:48 PM

Not bad on these tabs!! I think its perfect.. Keep it up!! But there's a little confusion here and there.. But i will try 2 understand.. Keep it up man!!

0 reply
FidoFletch 52 Oct 23, 2006 08:20 AM

I dun understand the tab.. Can u pls simplify it with Guitar 1 and Guitar 2 with the solos in together?? It is veri confusin'.

guest
You may want to rate the tab now too:
select rating
Wanna post a correction for this tab? Suggest correction