Oops, an error
Loading. Please wait.

Friends Of The Enemy Tab

version 1
version 1

Whole song

Interactive

5,464 views 1 this week
3 commentsread comments
1 2 3 4 5
accurate
x 3
add to favorites
launch autoscroll
font size
0
reset
how to read this tab
guitar tuner
Tab Pro tools
  • play this tab
  • loop segment
  • change instrument
  • show fretboard
  • metronome
×
Best way to learn
"Friends Of The Enemy"
Autoscroll
slow
fast
+/-
esc
set tempo
stop
Contributor
No Use For A Name
Friends of the Enemy
Hard Rock Bottom
Tabbed by: Justin Baillargeron
 
 Intro	 
|-------------|----------------------------------------------|
|-------------|----------------------------------------------|
|-5--4--4--5--|-5--4--4--/9---\4-----------------------------|
|-------------|----------------------------------------------|
|-------------|----------------------------------------------|
|-------------|----------------------------------------------|
 guitar 1
|-------------|----------------------------------------------|
|-------------|----------------------------------------------|
|-------------|----------/9----\4----------------------------|
|----------5--|----------------------------------------------|
|-3--2--7--3--|-3--2--7--/7----\2----------------------------|
|-1--3--5-----|-1--3--5--------------------------------------|
 guitar 2/ light overdrive

 Verse 1			     End			 play with chorus
|-------------|-------------|-------|-----------|------------|
|-------------|-------------|-------|-----------|------------|
|-------------|-------------|-------|-10--9--7--|-5----------|
|----------5--|-------------|-------|-----------|------------|
|-3--2--7--3--|-3--2--7--5--|-5--3--|-8---7--5--|-3----------|
|-1--3--5-----|-1--3--5--3--|-3--1--|-----------|------------|
 Listen for rhythm		        I don't think so...
 Lost in confusion...   		

 Chorus
|-------------|--------------|-------------------------------|
|-------------|--------------|-------------------------------|
|-5-----------|-10--9--7--5--|-5--------7--------------------|
|-5--5--7--3--|--------------|-5--5--7--7--3--5--------------|
|-3--5--7--3--|-8---7--5--3--|-3--5--7--5--3--5--------------|
|----3--5--1--|--------------|----3--5-----1--3--------------|
 What would...            C over laps into next riff

 Verse 2 				       End
|-------------|-------------|-------|------------------------|
|-------------|-------------|-------|------------------------|
|-------------|-------------|-------|-12---------------------|
|----------5--|-------------|-------|------------------------|
|-3--2--7--3--|-3--2--7--5--|-5--3--|-10---------------------|
|-1--3--5-----|-1--3--5--3--|-3--1--|------------------------|

 Bridge 1
|-------------------------------------------------------------|
|-------------------------------------------------------------|
|--------------------------5-5-5-5--5-5-5-5--5-5-5------------|
|-3-3-3-3--3-3-3-3--3-3-3--5-5-5-5--5-5-5-5--5-5-5------------|
|-3-3-3-3--3-3-3-3--3-3-3--3-3-3-3--3-3-3-3--3-3-3------------|
|-1-1-1-1--1-1-1-1--1-1-1-------------------------------------|
 Guitar 1 (palm mute)

|-------------------------------------------------------------|
|-------------------------------------------------------------|
|-------------------------------------------------------------|
|--------------------------5-5-5-5--5-5-5-5--3-3-3------------|
|-3-3-3-3--3-3-3-3--2-2-2-------------------------------------|
|-------------------------------------------------------------|
 Guitar 2 (palm mute)

|------------------------------------------------------------|
|------------------------------------------------------------|
|------------------------------------------------------------|
|-3-3-3-3--3-3-3-3--3-3-3--7-7-7-7--5-5-5-5--5-5-5-----------|
|-3-3-3-3--3-3-3-3--3-3-3--7-7-7-7--5-5-5-5--5-5-5-----------|
|-1-1-1-1--1-1-1-1--1-1-1--5-5-5-5--3-3-3-3--3-3-3-----------|
 Guitar 1

|-------------------------------------------------------------|
|-------------------------------------------------------------|
|-------------------------------------------------------------|
|-7-7-7-7--7-7-7-7--5-5-3--2-2-2-2----------------------------|
|-----------------------------------2-2-2-2--2-2-2------------|
|-------------------------------------------------------------|
 Guitar 2
 
 Bridge 2
|-------------------------------------------------------------|
|-------------------------------------------------------------|
|--------------------------5-5-5-5--5-5-5-5--5-5-5------------|
|-3-3-3-3--3-3-3-3--3-3-3--5-5-5-5--5-5-5-5--3-3-3------------|
|-3-3-3-3--3-3-3-3--2-2-2--3-3-3-3--3-3-3-3--3-3-3------------|
|-1-1-1-1--1-1-1-1--1-1-1-------------------------------------|
 Guitar 1 (no palm mute)
 

|-------------------------------------------------------------|
|--------------------------8-8-8-8--8-8-8-8--6-6-6------------|
|-5-5-5-5--5-5-5-5--4-4-4-------------------------------------|
|--------------------------5-5-5-5--5-5-5-5--3-3-3------------|
|-3-3-3-3--3-3-3-3--2-2-2-------------------------------------|
|-------------------------------------------------------------|
 Guitar 2 (no palm mute)

|------------------------------------------------------------|
|------------------------------------------------------------|
|------------------------------------------------------------|
|-3-3-3-3--3-3-3-3--3-3-3--7-7-7-7--5-5-5-5--5-5-5-----------|
|-3-3-3-3--3-3-3-3--3-3-3--7-7-7-7--5-5-5-5--5-5-5-----------|
|-1-1-1-1--1-1-1-1--1-1-1--5-5-5-5--3-3-3-3--3-3-3-----------|
 Guitar 1

|-------------------------------------------------------------|
|-10-10-10-10--10-10-10-10--8-8-6--5-5-5-5--------------------|
|-------------------------------------------4-4-4-4--4-4-4----|
|-7--7--7--7---7--7--7--7---5-5-3--2-2-2-2--------------------|
|-------------------------------------------2-2-2-2--2-2-2----|
|-------------------------------------------------------------|
 Guitar 2

 Bridge 3
|-----|-----|--------------------------------------------------|
|-----|-----|--------------------------------------------------|
|-----|-----|--------------------------------------------------|
|-----|-----|--------------------------------------------------|
|--3--|--5--|-5\-----------------------------------------------|
|--1--|--3--|-3\-----------------------------------------------|
 14x    8x    1x
 Your imitating.....

Last Chorus
|-------------|--------------|--------------------|
|-------------|--------------|--------------------|
|-5-----------|-10--9--7--5--|-5------------------|
|-5--5--7--3--|--------------|-5--5--7--3---------|
|-3--5--7--3--|-8---7--5--3--|-3--5--7--3---------|
|----3--5--1--|--------------|----3--5--1---------|
 Its when that you can't....

|-------------|--------------|--------------------|
|-------------|--------------|--------------------|
|-5-----------|-10--9--7--5--|-5------------------|
|-5--5--7--3--|--------------|-5--5--7--3---------|
|-3--5--7--3--|-8---7--5--3--|-3--5--7--3---------|
|----3--5--1--|--------------|----3--5--1---------|
  Don't understand...
 Last time
|-------------|
|-------------|
|-5-----------|
|-5--5--7--3--|
|-3--5--7--3--|
|----3--5--1--|
           zone.....
 Guitar 1 

|-------------|
|-------------|
|-5--7--------|
|-------7--3--|
|-3--5--7--3--|
|-------5--1--|
 Guitar 2

 The only part I'm not sure about is guitar 2 on the last time through the
chorus, the rest seems to be perfect.
comments
We did not receive enough feedback on this tab! Please rate:
print report bad tab
1 2 3 4 5
3 comments total.
0 reply
Bletic wrote on December 30 2006, 07:18 pm

....

0 reply
bandgeek10 wrote on February 8 2007, 11:06 am

I don't think the intro is right...

0 reply
shoottheofficer wrote on December 12 2013, 12:07 am

Intro
|-------------|----------------------------------------------|
|-------------|----------------------------------------------|
|-5--4--4--5--|-5--4--4--/9---\4-----------------------------|
|-------------|----------------------------------------------|
|-------------|----------------------------------------------|
|-------------|----------------------------------------------

I hear nothing remotely close to this in the intro, just the bass. What I think is actually being played is a harmonization of two notes with slight vibrato. And the part after which is /9 \4 is non existent, the only thing being played is the triad of the power chord. I might not be 100% correct but I know I'm more on the right track than the original revision of the tab. I'll give the tab a 3 since there is some crucial mistakes such as partial chords not completely filled. It's some-what accurate but by no means perfect. I realize I should correct this however this is incomplete, this is just the first time played. It's played different the second time. I will submit it once I have that figured out.
|-------------|----------------------------------------------|
|-5--3--3--5--|-5--3--3--------------------------------------|
|-5--4--4--5--|-5--4--4--------------------------------------|
|-------------|----------------------------------------------|
|-------------|----------------------------------------------|
|-------------|----------------------------------------------

I want to post or [tab]
guest
You may want to rate the tab now too:
select rating
Please do not post tabs as comments. Select "correction" instead!