Oops, an error
Loading. Please wait.

Sleeping Between Trucks chords

version 2
version 2

Whole song

3,448 views 9 this week
1 commentread comment
1 2 3 4 5
x 12
add to favorites
×
Save as Personal and add changes to this tab that will be seen only by you. Learn more ›
×
You can save this tab as Personal to edit and correct it or add notes. All changes will be seen only by you. Learn more »
launch autoscroll
font size
0
reset
transpose
0
reset
display chords
guitar tuner
edit
Autoscroll
slow
fast
+/-
esc
set tempo
stop
Author
Strumming
There is no strumming pattern for this song yet. and get +5 IQ
-------------------------------------------------------------------------------
                Sleeping Between Trucks - No Use For a Name
-------------------------------------------------------------------------------
Tabbed by: Fabio-BlenderBR
 - Please rate and send me your feedback - 

Intro : 

e|-3----------------------------------------|
B|-3---------3------------1----4------------|
G|-----------4-----------------5------------|
D|-----------4-----2------2----5------------|
A|-2------0--2-----2----0-3----3------------|
E|-3-----3---------0---2--------------------|
   G         Bm    Em     C    Cm

      G            Bm               Em
When you wait for someone to come trough
     Am                         D
I'm sorry to inform you of the news
     G              Bm                Em
On your own, you'll stand in line and wait
      Am                           D
To let them pick your poison and then decide your fate

C                  D                   G
Standing on lines that you never want to cross
Bm                   Em
Better listen to the boss
Am
I know you're lonely too
     D
I'm sleeping between trucks thinking of you


- Intro (Again)
e|-3----------------------------------------|
B|-3---------3------------1----4------------|
G|-----------4-----------------5------------|
D|-----------4-----2------2----5------------|
A|-2------0--2-----2----0-3----3------------|
E|-3-----3---------0---2--------------------|
   G         Bm    Em     C    Cm

- Piano
e|-----------------------------------------------------|
B|---8---8--10--12-----12---8---8--7--5---4------------|
G|-----------------------------------------------------|
D|-----------------------------------------------------|
A|-----------------------------------------------------|
E|-----------------------------------------------------|


G            Bm                 Em
Overwhelmed? What do we really know?
     Am                            D
We've never had to live out on the road
        G         Bm                 Em
In the next five years I'm going to guess
Am                          D
The less we see the beauty, the more we see this mess

C                      D                 G
In your room you see a painting on the wall
Bm                    Em
But you don't see me at all
Am
I know you're lonely too
     D                                          
I'm sleeping between trucks thinking of you

G  Em

Am
I know you're lonely too
     D                                      Cm
I'm sleeping between trucks thinking of you

- Final
e|-3---------------------------------3~-----|
B|-3---------3------------1----4-----3~-----|
G|-----------4-----------------5------------|
D|-----------4-----2------2----5------------|
A|-2------0--2-----2----0-3----3-----2~-----|
E|-3-----3---------0---2-------------3~-----|
   G         Bm    Em     C    Cm    G

e|-----------------------------------------------------|
B|---8---8--10--12-----12---8---8--7--5---4--3~--------|
G|-----------------------------------------------------|
D|-----------------------------------------------------|
A|-----------------------------------------------------|
E|-----------------------------------------------------|

            
            
Suggest correction
Creating personal tab
Creating personal tab
You can edit any tab online and save it as your Personal.

You can edit, replace or remove any tab part or add personal notes – all changes will be seen only by you.

Personal tabs can be accessed anytime from any device, even offline.
Learn more »
comments
print report bad tab
1 comment total.
+1 reply
miller323334 352 Nov 14, 2014 10:36 PM

Awesome Tab. Thanks for posting this great song. I play a Bm instead of the B, but whatever, to each their own, both ways sound great.

guest
You may want to rate the tab now too:
select rating
Wanna post a correction for this tab? Suggest correction