Oops, an error
Loading. Please wait.

Soulmate Bass Tab

version 1
version 1

Whole song

Interactive

2,645 views 6 this week
1 commentread comment
1 2 3 4 5
1 last vote to show rating
add to favorites
launch autoscroll
font size
0
reset
guitar tuner
×
Best way to learn
"Soulmate"
Autoscroll
slow
fast
+/-
esc
set tempo
stop
Song: Soulmate
Album: Leche con Carne
Artist: No Use for a Name
Tabbed by: alberto zorrico3@yahoo.com

Intro:
G:------------------------|
D:------------------------|
A:-------6>-------4>----|  X 2
E:--4>-------1>----------|

Verse:
G:-----------------------------------|
D:-----------------------------------|
A:------6>-----4>-----6>--4>----|   X 1
E:--4>-----1>-----4>--------------|

Chorus:
G:-------------------------------------------------|
D:-------------------------------------------------|
A:------6>----4>---6>--4>-----------4-----6--|
E:--4>-----1>---4>----------6>--2>-----4-----|

Intro
Verse
Chorus

Bridge: X 1                X 2                             X 1
G:-------------|----------------------------------|------------|
D:-------------|----------------------------------|------------|
A:-------------|------6>---------6>--4>--4-3-|-------6>--|
E:-4>--3>----|--4>----4>--1>----------------|--1>-------|

Under guitar solo play intro

Verse
Chorus
Bridge
Intro

Outro:
G:----------|        -------------|
D:----------|         ------------|
A:-----6>--| X 3  ---4>------|
E:--1>-----|         -------4>--|




Suggest correction
Give kudos to tab author, rate the tab!
1 2 3 4 5
comments
print report bad tab
1 comment total.
0 reply
telenofunken 101 Dec 10, 2013 07:54 AM

Bridge: X 1 X 2 X 1
G:-------------|----------------------------------|------------|
D:-------------|----------------------------------|------------|
A:-------------|------6>------------6>---4>---4-3-|-------6>---|
E:-4>--3>------|--4>------4>----1>----------------|--1>--------|

Is not a correction, is just to put it ordered

guest
You may want to rate the tab now too:
select rating
Wanna post a correction for this tab? Suggest correction