Oops, an error
Loading. Please wait.

Heal Me Im Heartsick tab

version 1
version 1

Whole song

Interactive

56,222 views 30 this week
31 commentsread comments
1 2 3 4 5
x 52
add to favorites
×
Save as Personal and add changes to this tab that will be seen only by you. Learn more ›
×
You can save this tab as Personal to edit and correct it or add notes. All changes will be seen only by you. Learn more »
launch autoscroll
font size
0
reset
how to read this tab
guitar tuner
backing track
0:00
0:00
edit
Autoscroll
slow
fast
+/-
esc
set tempo
stop
Author
Song:   Heal Me, I'm Heartsick
Artist: No Vacancy
Tabbed by: Dan Benz (DanSumthing@aol.com)

This is the song that wins the battle of the bands contest in the movie
School of Rock.  You can only hear pieces of the song in the movie, and from
what I heard, it sounded pretty good.  I listened to the song on the soundtrack,
and it was really cool, so I thought I'd tab it out.  (Also, in the scene where 
they kick Jack Black out of the band, you hear them practicing it, and the
lead singer is saying the chord names in the song, so I had a head start there.)  

In sections with lyrics, the notes line up with the word they are played on.
In sections without lyrics, notes are spaced in the correct rhythm.

[Intro]

Guitar 1: Clean 
Let ring~~~~~~~~~~~~~~~~~~~~~~~~~~~~~~~~~~~~~~~~~~~~~~~~~~~~~~~~~~~
e|------------0---------------0---------------0-------------------|
B|------1-0-------------1-0-------------1-0-----------------------|
G|----0-----------0---0---------0-----0-----------0-------0-------| Play 2X
D|----------------------------------------------------0-2-2-------|
A|--3---------------3---------------3---------------3-----3-------|
E|----------------------------------------------------------------|

Play this section 2X with lyrics
Guitar 1: Clean
         1. Heal me.       I'm heartsick.     I'm hun - gry and I'm broken.                
     2. I'm haun-ted,      and weep-ing       the blood of  hea-ven flow-
e|---------------0------------------0-------------------0----------------|
B|------1---0--------------1---0--------------1---0----------------------|
G|----0------------0-----0------------0-----0-------------0---------0----| 
D|--------------------------------------------------------------0-2-2----|
A|--3------------------3------------------3-------------------3-----3----|
E|-----------------------------------------------------------------------|

Guitar 1: With some distortion
   -ing like a    river tonight.  Tears I can't fight on my own.   
e|-------------|------------------------------------------------|
B|-------------|----1---0---------------1-0---------------------|
G|-------------|--2---------------2-------------------------2---|
D|--0----------|------------------------------------------------|
A|------3----2-|------------------------------------------------|
E|-------------|------------------------------------------------|

Guitar 2: Clean    Am      G       Am            G           F
e|-------------|--0-------3-------0-------------3-----------1---|
B|-------------|--1-------3-------1-------------0-----------1---|
G|-------------|--2-------0-------2-------------0-----------2---|
D|-------------|--2-------0-------2-------------0-----------3---|
A|-------------|--0-------2-------0-------------2-----------3---|
E|-------------|----------3---------------------3-----------1---|

Guitar 1: With some distortion. Play 2X
   1. I'm a   haun-ted           hea -then.     I'm hung  and barely  breathing.  
       2. The drowning           o  - cean.         Snuff the sun in  mo-
e|-----------------0------------------0-------------------0----------------|
B|--------1---0--------------1---0--------------1---0----------------------|
G|----0--------------0-----0------------0-----0-------------0---------0----| 
D|----------------------------------------------------------------0-2-2----|
A|--3--------------------3------------------3-------------------3-----3----|
E|-------------------------------------------------------------------------|

Guitar 1: With some distortion
   -tion there's a   pill on my tongue. A shot from a gun, the bottle's bottom,
e|-----------------|------------------------------------------------------------------|
B|-----------------|------1--0-----------------1----0--------------1--------0---------|
G|-----------------|-2--------------------2-------------------------------------------|
D|--0--------------|------------------------------------------------------------------|
A|-------3-------2-|------------------------------------------------------------------|
E|-----------------|------------------------------------------------------------------|

Guitar 2: Some dist.  Am         G         Am   Am     Em       F   F    Em Em
e|-----------------|-0----------3---------0----0------0--------1---1----0--0----|
B|-----------------|-1----------3---------1----1------0--------1---1----0--0----|
G|-----------------|-2----------0---------2----2------0--------2---2----0--0----|
D|-----------------|-2----------0---------2----2------2--------3---3----2--2----|
A|-----------------|-0----------2---------0----0------2--------3---3----2--2----|
E|-----------------|------------3---------------------0--------1---1----0--0----|

Guitar 1:
    I'm lonely as a star.   
e|-----------------------|
B|-----------------------|
G|------0---2--0---------|
D|--2-------------2-3----|
A|-----------------------|
E|-----------------------|

Guitars 1+2: More distortion
    C   C         G     G           Dm Dm  Dm              AmAm       G       C
        Heal me.    I'm heartsick.         Hungry, thought I could survive on you.
e|--0---0---------3-----3-----------1--1---1---------------0-0--------3-------0----|
B|--1---1---------3-----3-----------3--3---3---------------1-1--------0-------1----|
G|--0---0---------0-----0-----------2--2---2---------------2-2--------0-------0----|
D|--2---2---------0-----0-----------0--0---0---------------2-2--------0-------2----|
A|--3---3---------2-----2-----------0--0---0---------------0-0--------2-------3----|
E|--0---0---------3-----3----------------------------------0-0--------3-------0----|

    C         G       G         Am            F   F   F   F    F   F
    Hear my heartsick hungry cry.                     I'm heartsick.  
e|--0---------3-------3---------0-------------1---1---1---1----1---1---|
B|--1---------3-------3---------1-------------1---1---1---1----1---1---|
G|--0---------0-------0---------2-----0-2-0---2---2---2---2----2---2---|
D|--2---------0-------0---------2---2-------2-3---3---3---3----3---3---|
A|--3---------2-------2---------0-------------3---3---3---3----3---3---|
E|--0---------3-------3---------0-------------1---1---1---1----1---1---|

Play intro 1 time with some distortion. Then:

Play this section 2X with lyrics:
Guitar 1: with some distortion
       1. Fa -  ther,        free me.       Ma -  ma  wo- man       feed me.
     2. A child of,          fu-ry.         Lost  his way but don't wor-
e|--------------0---------------0-----------------0--------------------|
B|------1-0---------------1--0------------1-0--------------------------|
G|----0-----------0-----0---------0-----0-----------0---------------0--| 
D|--------------------------------------------------------0---2-----2--|
A|--3-----------------3---------------3-----------------3-----------3--|
E|---------------------------------------------------------------------|

Guitar 1: With some distortion
   -ry I won't stop 'til the dawn. I've been too long on the run. I grow strong,
e|---------|-------------------------------------------------------------------|
B|---------|---------1---0--------------1----0---------------------------------|
G|---------|---2-------------------2-------------------------------------------|
D|--0------|-------------------------------------------------------------------|
A|-----3-2-|-------------------------------------------------------------------|
E|---------|-------------------------------------------------------------------|

Guitar 2: Clean Am    Am      G     Am   Am       Em      F   F      Em Em
e|---------|---0-----0-------3-----0----0--------0-------1---1------0--0-------|
B|---------|---1-----1-------3-----1----1--------0-------1---1------0--0-------|
G|---------|---2-----2-------0-----2----2--------0-------2---2------0--0-------|
D|---------|---2-----2-------0-----2----2--------2-------3---3------2--2-------|
A|---------|---0-----0-------2-----0----0--------2-------3---3------2--2-------|
E|---------|-----------------3-------------------0-------1---1------0--0-------|

Guitar 1:
    and restless as a storm.
e|-------------------------|
B|-------------------------|
G|------0---2----0---------|
D|--2---------------2-3----|
A|-------------------------|
E|-------------------------|

Guitars 1+2: More distortion
    C   C           G     G           Dm Dm  Dm              AmAm       G          C
        Heal me.      I'm heartsick.         Hungry, thought I could survive on    you.
e|--0---0-------X-X-3-----3-------X-X-1--1---1---------------0-0--------3------X-X-0--|
B|--1---1-------X-X-3-----3-------X-X-3--3---3---------------1-1--------0------X-X-1--|
G|--0---0-------X-X-0-----0-------X-X-2--2---2---------------2-2--------0------X-X-0--|
D|--2---2-------X-X-0-----0-------X-X-0--0---0---------------2-2--------0------X-X-2--|
A|--3---3-------X-X-2-----2-------X-X-0--0---0---------------0-0--------2------X-X-3--|
E|--0---0-------X-X-3-----3-------X-X------------------------0-0--------3------X-X-0--|   
    
    C         G       G           Am Am         F   F   F   F    F   F
    Hear my heartsick hungry cry.                       I'm heartsick.  
e|--0-----X-X-3-------3-------X-X-0--0----------1---1---1---1----1---1---|
B|--1-----X-X-3-------3-------X-X-1--1----------1---1---1---1----1---1---|
G|--0-----X-X-0-------0-------X-X-2--2--0-2-0---2---2---2---2----2---2---|
D|--2-----X-X-0-------0-------X-X-2--2--------2-3---3---3---3----3---3---|
A|--3-----X-X-2-------2-------X-X-0--0----------3---3---3---3----3---3---|
E|--0-----X-X-3-------3-------X-X-0--0----------1---1---1---1----1---1---|

Guitar 1: With distortion
E|--------------------------------------------(17)*(17)r16-16b17~~~~~~~|
B|---------------------------------------------------------------------|
G|---------------------------------------------------------------------| 
D|---------------------------------------------------------------------|
A|---------------------------------------------------------------------|
E|---------------------------------------------------------------------|
Guitar 2: The section directly below repeats 3X. I have written it 
out three times in full to show how the other guitar parts fit in with it.
E|--------------------------------------------------|------------------|
B|-------8---8--------------------------------------|------------8---8-|
G|--7b9*******(9)r7-5-7b9*(9)*(9)*(9)*(9)r7p5-------|-------7b9********|
D|---------------------------------------------7-7--|------------------|
A|--------------------------------------------------|------------------|
E|--------------------------------------------------|------------------|

Guitar 1: 
E|-----------------------------------------------------|
B|---13----13-15b17******(17)*(17)*(17)*(16)*13--------|
G|---------------------------------------------14~~~~~~| 
D|-----------------------------------------------------|
A|-----------------------------------------------------|
E|-----------------------------------------------------|
Guitar 2:
E|-----------------------------------------------------|
B|-----------------------------------------------------|
G|--(9)r 7--5--7b9**(9)**(9)**(9)**(9)r7p5-------------|
D|------------------------------------------7-7--------|
A|-----------------------------------------------------|
E|-----------------------------------------------------|

Guitar 1: 
E|----------16b17r16-(17)r16-(17)r16-(17)~~~~~~~~~~~|
B|--------------------------------------------------|
G|--------------------------------------------------| 
D|--------------------------------------------------|
A|--------------------------------------------------|
E|--------------------------------------------------|
Guitar 2:
E|--------------------------------------------------|
B|-------8---8--------------------------------------|
G|--7b9*******(9)r7-5-7b9*(9)*(9)*(9)*(9)r7p5-------|
D|---------------------------------------------7-7--|
A|--------------------------------------------------|
E|--------------------------------------------------|

Guitar 1: 
E|----------------------------------|
B|----------------------------------|
G|----------------------------------| 
D|----------------------------------|
A|----------------------------------|
E|----------------------------------|
Guitar 2:
E|----------------------------------|
B|----------------------------------|
G|--7b9*(9)*(9)*(9)*(9)r7p5---------|
D|---------------------------7-7----|
A|----------------------------------|
E|----------------------------------|

Guitar 1: 
E|--15b17****(17)*(17)*(17)*(17)*(17)*(17)*(17)r15~~~~~~~~~~~~15--12----|
B|----------------------------------------------------------------------|
G|----------------------------------------------------------------------| 
D|----------------------------------------------------------------------|
A|----------------------------------------------------------------------|
E|----------------------------------------------------------------------|
Guitar 2:
   G    G    G    G    G    G    G    G    F  F  F  F     F  F    C
E|--3----3----3----3----3----3----3----3----1--1--1--1-----1--1----0----|
B|--3----3----3----3----3----3----3----3----1--1--1--1-----1--1----1----|
G|--4----4----4----4----4----4----4----4----2--2--2--2-----2--2----0----|
D|--5----5----5----5----5----5----5----5----3--3--3--3-----3--3----2----|
A|--5----5----5----5----5----5----5----5----3--3--3--3-----3--3----3----|
E|--3----3----3----3----3----3----3----3----1--1--1--1-----1--1----3----|

Guitar 1: play 2X with lyrics
            1. Heal me.       I'm heartsick.     I'm hun - gry and I'm broken.                
        2. I'm haun-ted,      and weep-ing       the blood of  hea-ven flow-
e|-------------------0------------------0-------------------0----------------|
B|----------1---0--------------1---0--------------1---0----------------------|
G|--------0------------0-----0------------0-----0-------------0---------0----| 
D|------------------------------------------------------------------0-2-2----|
A|------3------------------3------------------3-------------------3-----3----|
E|---------------------------------------------------------------------------|
Guitar 2: 2nd time only
       C
e|--X-X-0--------------------------------------------------------------------|
B|--X-X-1--------------------------------------------------------------------|
G|--X-X-0--------------------------------------------------------------------| 
D|--X-X-2-----------------------------------------------------------0-2------|
A|--X-X-3---------------------------------------------------------3-----3----|
E|--X-X-3--------------------------------------------------------------------|

Guitars 1+2: with distortion
   -ing like a    river tonight.        Tears I can't fight on my own.   
                  Am      G     G  G  G Am    Am      E        F  F
e|-------------|--5-5-----3-----3--3--3-5-----5-------0--------1--1----|
B|-------------|--5-5-----3-----3--3--3-5-----5-------0--------1--1----|
G|-------------|--5-5-----4-----4--4--4-5-----5-------0--------2--2----|
D|--0----------|--7-7-----5-----5--5--5-7-----7-------2--------3--3----|
A|------3----2-|--7-7-----5-----5--5--5-7-----7-------2--------3--3----|
E|-------------|--5-5-----3-----3--3--3-5-----5-------0--------1--1----|

Guitar 1:              
    F  F  F  F  F  F     
e|--1--1--1--1--1--1----|
B|--1--1--1--1--1--1----|
G|--2--2--2--2--2--2----| 
D|--3--3--3--3--3--3----|
A|--3--3--3--3--3--3----|
E|--1--1--1--1--1--1----|

Guitar 1: Slide Part 1 (play with slide) Played here at chorus and again at repeat of chorus. 
e|---------------------------------------------------------------------------------------|
B|-/5~~~~~~~~~~~~4/5\4~~~~~~~----4/5\4\2~~~~~~~~~~------------4/5\4   /5 \4/5\4/5\4--/5--|
G|---------------------------------------------------------------------------------------|
D|---------------------------------------------------------------------------------------|
A|---------------------------------------------------------------------------------------|
E|---------------------------------------------------------------------------------------|

Guitar 2: repeat the whole chorus section 2X, then go on 
   C    C           G     G           Dm Dm    Dm              AmAm       G
1+2. So heal me.      I'm heartsick.       I'm Hungry, thought I could survive on    you.
e|--0----0-------X-X-3-----3-------X-X-1--1-----1---------------0-0--------3------X-X-0--|
B|--1----1-------X-X-3-----3-------X-X-3--3-----3---------------1-1--------0------X-X-1--|
G|--0----0-------X-X-0-----0-------X-X-2--2-----2---------------2-2--------0------X-X-0--|
D|--2----2-------X-X-0-----0-------X-X-0--0-----0---------------2-2--------0------X-X-2--|
A|--3----3-------X-X-2-----2-------X-X-0--0-----0---------------0-0--------2------X-X-3--|
E|--0----0-------X-X-3-----3-------X-X--------------------------0-0--------3------X-X-0--|   

Guitar 1: Slide Part 2 (play with slide) Play only once. 
         When chorus repeats, play Slide Part 3 
e|-------------------------------------------------------------------------|
B|-/5~~~~~~~~~~~~/7~~~~~---------/9----9-9-9-9-9-9\9\8\7-7-7-7-7-----------|
G|-------------------------------------------------------------------------|
D|-------------------------------------------------------------------------|
A|-------------------------------------------------------------------------|
E|-------------------------------------------------------------------------|
1. Hear my heartsick hungry cry.                         I'm heartsick.  
                         2. cry~~~~~~~~~~~~~~~~~~~~~~~~~~~~~~~~~~~~~~~~~ 
   C         G       G           Am Am           F   F   F   F    F   F                           
e|--0-----X-X-3-------3-------X-X-0--0------------1---1---1---1----1---1---|
B|--1-----X-X-3-------3-------X-X-1--1------------1---1---1---1----1---1---|
G|--0-----X-X-0-------0-------X-X-2--2----0-2-0---2---2---2---2----2---2---|
D|--2-----X-X-0-------0-------X-X-2--2----------2-3---3---3---3----3---3---|
A|--3-----X-X-2-------2-------X-X-0--0------------3---3---3---3----3---3---|
E|--0-----X-X-3-------3-------X-X-0--0------------1---1---1---1----1---1---|

Guitar 1: Slide Part 3 (play with slide) Play after playing Slide Part 1 the 2nd time. 
e|-------------------------------------------------------------------------|
B|-/9~~~~~~~~~~~~/12~~~~~~~~~--/9---9-9-9-9-9-9/9/10/10--10--10---10--10---|
G|-------------------------------------------------------------------------|
D|-------------------------------------------------------------------------|
A|-------------------------------------------------------------------------|
E|-------------------------------------------------------------------------|

Guitar 1: Slide Part 3 cont. 
play with slide until here |
e|--------------------------|------------0---------------0---------------0----------------|
B|--10--10--10--10---10--10-|------1-0-------------1-0-------------1-0--------------------|
G|--------------------------|--------------0-----0---------0-----0---------0---------0----|
D|--------------------------|----------------------------------------------------0-2-2----|
A|--------------------------|------------------3---------------3---------------3-----3----|
E|--------------------------|-------------------------------------------------------------|

Guitar 2: Distortion
   F   F   F   F    F   F     C
e|--1---1---1---1----1---1--|--0----------------------------------------------------------|
B|--1---1---1---1----1---1--|--1----------------------------------------------------------|
G|--2---2---2---2----2---2--|--0----------------------------------------------------------|
D|--3---3---3---3----3---3--|--2-------------------------------------------------0-2-2----|
A|--3---3---3---3----3---3--|--3-----------------------------------------------3-----3----|
E|--1---1---1---1----1---1--|--3----------------------------------------------------------|

Guitar 1: Slight distortion
e|------------0---------------0---------------0-----------0----|
B|------1-0-------------1-0-------------1-0---------------1----|
G|----0---------0-----0---------0-----0---------0---------0----|
D|----------------------------------------------------0-2-2----|
A|--3---------------3---------------3---------------3-----3----|
E|-------------------------------------------------------------|

Guitar 2: More distortion 
   C
e|--0----------------------------------------------------------|
B|--1----------------------------------------------------------|
G|--0-----------------------------------------------------0----|
D|--2-------------------------------------------------0-2-2----|
A|--3-----------------------------------------------3-----3----|
E|--3-----------------------------------------------------3----|


************************************

| b  bend          ex: 7b9 = strike 7th fret and bend up a whole tone
| r  release bend  ex: (9)r7 = release the bent 7th fret to its regular position
| *  hold bend     ex: 7b9*(9)*(9) = Bend the 7th fret a whole tone and hold the 
                                        bend while continuing to strike the bent string
| p  pull-off      ex: 7p5 = strike 7th fret and pull-off to the 5th fret
| ~  vibrato       ex: 17~~~ = strike 17th fret and wiggle the string for vibrato
| /  Slide up
| \  Slide down

************************************

            
            
Suggest correction
Creating personal tab
Creating personal tab
You can edit any tab online and save it as your Personal.

You can edit, replace or remove any tab part or add personal notes – all changes will be seen only by you.

Personal tabs can be accessed anytime from any device, even offline.
Learn more »
comments
print report bad tab
31 comments total. Showing first comments.
0 reply
Dionysus 10 Mar 14, 2004 07:00 PM

Awesome tab but its pretty funny the new guy is wearing that mini shirt thing..But yeah great tab dude!

0 reply
BoucheDag 10 Mar 18, 2004 07:00 PM

This tab freaking rocks! It's got everything. Noyce!

0 reply
nasty_santa409 100 Apr 13, 2004 08:00 PM

that was an awesome song. great tab.

guest
You may want to rate the tab now too:
select rating
Wanna post a correction for this tab? Suggest correction