Oops, an error
Loading. Please wait.

Heal Me Im Heartsick bass

version 2
version 2

Whole song

Interactive

3,143 views 3 this week
1 commentread comment
1 2 3 4 5
x 3
add to favorites
×
Save as Personal and add changes to this tab that will be seen only by you. Learn more ›
×
You can save this tab as Personal to edit and correct it or add notes. All changes will be seen only by you. Learn more »
launch autoscroll
font size
0
reset
guitar tuner
backing track
0:00
0:00
edit
Autoscroll
slow
fast
+/-
esc
set tempo
stop
      No Vacancy - Heal Me
     (Soundtrack School of Rock)

No Vacancy - "Heal Me" - Bass Tab

common time(4/4)
standard tuning(EADG)
Tabbed by Beng (dynarock_89@hotmail.com) (2nd tab.. =PP)

INTRO:

G |x|
D |x|
A |x|
E |x|


Verse-1
G|------------|------------|------------|------------|--------------|
D|------------|------------|------------|----0--2----|--------------|
A|-3----------|-3----------|-3----------|-3--------3-|--------------|
E|------------|------------|------------|------------|--------------|
     Heal, me I'm heartsick I'm hungry and i'm broken
   i'm haunted, and weeping. The blood of heaven flowing like a
G|------------|-------------------|-----------|------------|
D|------------|-------------------|-----------|------------|
A|------------|-------------------|-----------|------------|
E|--5-5----3--|--5-5-----------3--|------1----|------------|
  river tonite, tears i cant fight on my own

G|------------|------------|----------------|-------------|--------------|
D|------------|------------|----------------|-----0--2----|--------------|
A|-/3---------|--3---------|------3---------|--3--------3-|--------------|
E|-------3-5--|-------3-5--|-----------3-5--|-------------|--------------|
     i'm haunted,Heaving    i'm hung and barely breathing
    The drowning,Ocean - Snuff the sun in motion
      G|----------------|--------------------|
      D|----------------|--------------------|
      A|----------------|--------------------|
      E|--5-5--------3--|----5-5---------3---|
There's a pill on my tongue, shot from a gun

     G|----------------|-----------------------|
     D|----------------|-----------------------|
     A|----------------|-----------------------|
     E|--5----------3--|---3--5--3--5--1-------|
     The bottles bottom, lonely as a star

Chorus
G|-----------|--------------|---------|-----------------|---------|
D|-----------|-5x8----------|---------|-----------------|---------|
A|-3x8-------|--------------|-5x8-----|-----------------|---------|
E|-----------|--------------|---------|-----5x4---------|---3x4---|
   Heal me,    I'm heartsick,  hungry,  but I can survive on you

G|----------------|------------------------------------------|
D|--------5x4-----|------------------------------------------|
A|-3x8------------|-5x4--------------------------------------|
E|----------------|--------5-5-5-5-3-5-3-0-1-1-1-1-----------|
 Heal my heartsick,hungry cries               I'm heartsick!


Verse-2

G|------------|------------|------------|-------------|----------------|
D|------------|------------|------------|-----0--2----|----------------|
A|--3---------|--3---------|--3---------|--3--------3-|----------------|
E|-------3-5--|-------3-5--|-------3-5--|-------------|----------------|
     Father,      free me        mama,   woman feed me
   Child of       fury,       lost his way, but dont worry  I wont stop
G|------------|--------------------|-----------|------------|
D|------------|--------------------|-----------|------------|
A|------------|--------------------|-----------|------------|
E|--5-5----3--|--5-5-----------3---|------1----|------------|
   til the dawn I've been too long on the run

      G|----------------|--------------------|
      D|----------------|--------------------|
      A|----------------|--------------------|
      E|-----5-3--------|-------3-5-3-5-1----|
        I grow strong, and restles as a stone

Chorus
G|-----------|--------------|---------|-----------------|---------|
D|-----------|-5x8----------|---------|-----------------|---------|
A|-3x8-------|--------------|-5x8-----|-----------------|---------|
E|-----------|--------------|---------|-----5x4---------|---3x4---|
   Heal me,    I'm heartsick,  hungry,  but I can survive on you

G|----------------|------------------------------------------|
D|--------5x4-----|------------------------------------------|
A|-3x8------------|-5x4--------------------------------------|
E|----------------|--------5-5-5-5-3-5-3-0-1-1-1-1-----------|
 Heal my heartsick,hungry cries               I'm heartsick!


(Fill for solo)

G|------------|------------|------------|------------|---------------------|
D|------------|------------|------------|------------|----------5---3------|
A|------------|------------|------------|------------|------------------3--|
E|---5--------|-----5------|------5-----|----5-------|-----5---------------|

Verse-3

G|------------|------------|------------|------------|--------------|
D|------------|------------|------------|----0--2----|--------------|
A|-3----------|-3----------|-3----------|-3--------3-|--------------|
E|------------|------------|------------|------------|--------------|
   Heal me,    I'm heartsick, I'm hungry and I'm broken
  I'm haunted   and weeping   The blood of heaven flowing like a

G|------------|--------------------|-----------|------------|
D|------------|--------------------|-----------|------------|
A|------------|--------------------|-----------|------------|
E|--5-5----3--|--5-5-----------3---|------1----|------------|
  river tonite, tears i cant fight on my own

Chorus
G|-----------|--------------|---------|-----------------|---------|
D|-----------|-5x8----------|---------|-----------------|---------|
A|-3x8-------|--------------|-5x8-----|-----------------|---------|
E|-----------|--------------|---------|-----5x4---------|---3x4---|
   Heal me,    I'm heartsick,  hungry,  but I can survive on you

G|----------------|------------------------------------------|
D|--------5x4-----|------------------------------------------|
A|-3x8------------|-5x4--------------------------------------|
E|----------------|--------5-5-5-5-3-5-3-0-1-1-1-1-----------|
 Heal my heartsick,hungry cries               I'm heartsick!


Outro
G|-----------|--------------|---------|-----------------|---------|
D|-----------|-5x8----------|---------|-----------------|---------|
A|-3x8-------|--------------|-5x8-----|-----------------|---------|
E|-----------|--------------|---------|-----5x4---------|---3x4---|
   Heal me,    I'm heartsick,  hungry,  but I can survive on you

G|----------------|----------------------------------------------------------|
D|--------5x4-----|----------------------------------------------------------|
A|-3x8------------|-5x4---------------------------------------------------3--|
E|----------------|--------5-5-5-5-3-5-3-0-1-1-1-1---1-1---1-1-1-1---1-1-----|
 Heal my heartsick,hungry cries               I'm heartsick yea~

            
            
Suggest correction
Creating personal tab
Creating personal tab
You can edit any tab online and save it as your Personal.

You can edit, replace or remove any tab part or add personal notes – all changes will be seen only by you.

Personal tabs can be accessed anytime from any device, even offline.
Learn more »
Give kudos to tab author, rate the tab!
1 2 3 4 5
comments
print report bad tab
1 comment total.
0 reply
Delboy_360 10 Sep 27, 2007 09:20 AM

nnnice

guest
Wanna post a correction for this tab? Suggest correction