Oops, an error
Loading. Please wait.

Beach Bummer Bass Tab

97 views 24 this week
no commentswrite comment
1 2 3 4 5
3 more votes to show rating
add to favorites
launch autoscroll
font size
0
reset
guitar tuner
Autoscroll
slow
fast
+/-
esc
set tempo
stop
Help us to improve Ultimate-Guitar.com Take our survey!
×
Author
Difficulty
intermediate
About this tab version
Done by ear, as close as I possibly could. Welcome to any corrections. Was this info helpful? Yes No
[Verse]
G|----------|
D|7\--------|
A|----------|
E|----------|

G|--------------------------------------------2---3----------2---3-----------|
D|-----------------3--3--3---3-3-5-------------------------------------------|
A|3--3--3---3-3-5-------------------1--1--1-----1----1--1--1---1-------------| x2
E|---------------------------------------------------------------------------|

[Pre-Chorus]

G|-----------------------------3-----------3---3-----------------------------|
D|---------3--3--------------------------------------------------------------|
A|3--3-------------1--1------1-----1--1--1---1-------------------------------|
E|---------------------------------------------------------------------------|
                                                                               x2
G|----------------------------------3-----3----------3---3-------------------|
D|------------3--3----3--5---------------------------------------------------|
A|3--3----3-5---------------1--1-------1----1--1--1----1---------------------|
E|---------------------------------------------------------------------------|

[Chorus]

G|---------------------------------------------------------------------------|
D|--------------------------------5-5-5-5-5-5-5-5-3-3-3-3-3-3-3-3------------|
A|3-3-3-3-3-3-3-3-6-6-6-6-6-6-6-6--------------------------------------------|
E|---------------------------------------------------------------------------|

G|---------------------------------------------7---------5-5-----------------|
D|--------------------------------5-5-5-5-5-5-5-3-3-3-3-3-3-3----------------|
A|3-3-3-3-3-3-3-3-6-6-6-6-6-6-6-6--------------------------------------------|
E|---------------------------------------------------------------------------|

[Bridge]

G|--------------------------------------------3---3----------3---3-----------|
D|-----------------3--3--3---3-3-5-------------------------------------------|
A|3--3--3---3-3-5-------------------1--1--1-----1----1--1--1---1-------------| x6
E|---------------------------------------------------------------------------|

[Chorus]

G|---------------------------------------------------------------------------|
D|--------------------------------5-5-5-5-5-5-5-5-3-3-3-3-3-3-3-3------------|
A|3-3-3-3-3-3-3-3-6-6-6-6-6-6-6-6--------------------------------------------|
E|---------------------------------------------------------------------------|

G|---------------------------------------------7---------5-5-----------------|
D|--------------------------------5-5-5-5-5-5-5-3-3-3-3-3-3-3----------------|
A|3-3-3-3-3-3-3-3-6-6-6-6-6-6-6-6--------------------------------------------|
E|---------------------------------------------------------------------------|


G|--------------------------------------------2---3----------2---3-----------|
D|-----------------3--3--3---3-3-5-------------------------------------------|
A|3--3--3---3-3-5-------------------1--1--1-----1----1--1--1---1-------------| x2
E|---------------------------------------------------------------------------|


G|3/5--3-----3--5--5/7----|
D|--------5-------------5-|
A|------------------------|x4
E|------------------------|

G|------------------------|
D|------------------------|
A|1-----------------------|
E|------------------------|



************************************

| /   Slide up
| \   Slide down

************************************
Suggest correction
Give kudos to tab author, rate the tab!
1 2 3 4 5
comments
print report bad tab
guest
You may want to rate the tab now too:
select rating
Wanna post a correction for this tab? Suggest correction