Oops, an error
Loading. Please wait.

Lovefool Tab

85 views 15 this week
1 commentread comment
1 2 3 4 5
x 4
add to favorites
launch autoscroll
font size
0
reset
how to read this tab
guitar tuner
Autoscroll
slow
fast
+/-
esc
set tempo
stop
Help us to improve Ultimate-Guitar.com Take our survey!
×
Author
Difficulty
novice
About this tab version
I'm not sure if this is 100% correct. Edit the tab if you think something is missing or if there is anything wrong. Was this info helpful? Yes No
Main riff:

e|---10/12\10----------------10/12\10---------------|
B|------------13-10---8h10-----------13-10---8h10---|
G|--------------------------------------------------|
D|--------------------------------------------------| x8
A|--------------------------------------------------|
E|--------------------------------------------------|


Chorus:

e|----------------------------------------------------------------------|
B|-------15---------15---------15---------17---------17---------17------|
G|-----12------12-12------12-12------12/14------14-14------14-14--------|  
D|----------------------------------------------------------------------|  x2
A|----------------------------------------------------------------------|
E|----------------------------------------------------------------------|

e|----------------------------------------------------------------------|
B|----------15---------15---------15---------17---------17---------17---|
G|-----10/12------12-12------12-12------12/14------14-14------14-14-----|  
D|----------------------------------------------------------------------|  x2
A|----------------------------------------------------------------------|
E|----------------------------------------------------------------------|

Suggest correction
comments
print report bad tab
1 comment total.
0 reply
vinylponyo 10 Nov 07, 2016 02:18 AM

I think the little riff is missing a note but other than that, it'd be sick if you could tab the whole song. I've been following this band for quite a while and just now seeing people actually post on their songs really delights me, keep it up!

guest
You may want to rate the tab now too:
select rating
Wanna post a correction for this tab? Suggest correction