Oops, an error
Loading. Please wait.

Give A Little Love Tab

16,038 views 1 this week
no commentswrite comment
1 2 3 4 5
excellent!
x 4
add to favorites
launch autoscroll
font size
0
reset
how to read this tab
guitar tuner
Tab Pro tools
  • play this tab
  • loop segment
  • change instrument
  • show fretboard
  • metronome
×
Best way to learn
"Give A Little Love"
Autoscroll
slow
fast
+/-
esc
set tempo
stop
Contributor
Difficulty
novice
-------------------------------------------------------------------------------
Give a little love - Noah and the whale
-------------------------------------------------------------------------------
Tabbed by: possibly sam
Email: ilovewhalestheyremyfriends@hotmail.co.uk

Tuning:   Standard

This is my arrangement for standard tuning with no capo. The song has a capo one,
but i lost my capo so figured it out without one haha.


Intro/Chorus:

e|---------------------------------------------------------------------------|
B|---------------------------------------------------------------------------|
G|-1-1-1-1-1-1-1-1-1-1-1-1-0-0-0-0-----------------1-1-1-1-1-1-1-1-----------|
D|-3-3-3-3-3-3-3-3-3-3-3-3-1-1-1-1-1-1-1-1-1-1-1-1-3-3-3-3-3-3-3-3-----------|
A|-4-4-4-4-4-4-4-4-3-3-3-3-1-1-1-1-3-3-3-3-3-3-3-3-4-4-4-4-4-4-4-4-----------|
E|---------------------------------4-4-4-4-4-4-4-4---------------------------|

Verse:

Well I know my death will not come
'Til I breathe all the air out my lungs
'Til my final tune is sung

e|---------------------------------------------------------|
B|---------------------------------------------------------|
G|---------------------------------------------------------|
D|---6-6-6-6------------6-6-6-6-----------6-6-6-6----------|
A|--4-4-4-4---6-6-6-6--4-4-4-4--6-6-6-6--4-4-4-4--6-6-6-6--|
E|-----------4-4-4-4-----------4-4-4-4-----------4-4-4-4---|

That all is fleeting,
Yeah, but all is good

e|-----------------------------------------------------|
B|-----------------------------------------------------|
G|-----------------------------------------------------|
D|-----------------------------------------------------|
A|---6-6--6-6--6-6--3-3-3-3-3-3--6-6--6-6-6-6-6-6-6-6--|
E|--4-4--4-4--3-3--1-1-1-1-1-1--3-3--4-4-4-4-4-4-4-4---|

And my love is my whole being
And I've shared what I could

e|-----------------------------------------------------|
B|-----------------------------------------------------|
G|-----------------------------------------------------|
D|-----------------------------------------------------|
A|---6-6--6-6--6-6--3-3-3-3-3-3--6-6--6-6-6-6-6-6-6-6--|
E|--4-4--4-4--3-3--1-1-1-1-1-1--3-3--4-4-4-4-4-4-4-4---|

Chorus:

The chorus is the same notes as the intro put picked in a similar way to the verse, 
if you will.
So just mess around with the notes, make a pattern using all three if you want, or pick 
first two notes of each chord to replicate the method used on the album version.

Post Chorus:

Theres a lead bit here played on the piano along with a picked guitar line,
so ill tab just the guitar line (A) as a simplified version, and then both together (B).


Version A:
e|--------------------------------------|
B|--------------------------------------|
G|--------------------------------------|
D|--6-6-6-6--6-6-6-6-----------5-5-5-5--|
A|-8-8-8-8--4-4-4-4--6-6-6-6--6-6-6-6---|
E|------------------4-4-4-4-------------|

Version B:

(Hold the notes that your slide into)
e|----------------------------------------------|
B|------------6-/8-------------------8-\6-------|
G|-3-/-5-----------------5-/8-------------------|
D|------6-6-6-----6-6-6------------------5-5-5--|
A|-----8-8-8-----4-4-4-------6-6-6------6-6-6---|
E|--------------------------4-4-4---------------|

The outro is basically the post chorus :)


Enjoy, give feedback!


Song Order:
Intro x2
Verse x1
Chorus Riff x2
Post Chorus x2
Verse x1
Chorus Riff x4
Outro


| /  slide up
| \  slide down

===============================================================================
comments
print report bad tab
I want to post or [tab]
guest
You may want to rate the tab now too:
select rating
Please do not post tabs as comments. Select "correction" instead!