Oops, an error
Loading. Please wait.

Give A Little Love tab

version 2
version 2

Whole song

  • It's relative to capo and is more descriptive.
37 views 1 this week
no commentswrite comment
1 2 3 4 5
3 more votes to show rating
add to favorites
×
Save as Personal and add changes to this tab that will be seen only by you. Learn more ›
×
You can save this tab as Personal to edit and correct it or add notes. All changes will be seen only by you. Learn more »
launch autoscroll
font size
0
reset
how to read this tab
guitar tuner
edit
Autoscroll
slow
fast
+/-
esc
set tempo
stop
About this tab version
It's relative to capo and is more descriptive. Was this info helpful? Yes No
Noah and the Whale
Give a Little Love
Peaceful, the World Lays Me Down


Capo 1


Intro:
E------------------------------------------------------------------
B------------------------------------------------------------------
G---------------------------0---0----------------------------------
D---2---2---2---2---2---2/4---4---0---0---0---0---0---2---2---2---2
A-3---3---3---3---2---2-----------------------------3---3---3---3--
E-3---3---3---3---0---0-------------3---3---3---3---3---3---3---3--


Verse 1:
E----------------------------------------------------------------
B----------------------------------------------------------------
G----------------------------------------------------------------
D---2---2---2---0---0---0---0---0---2---2---2---0---0---0---0---0
A-3---3---3---3-------------------3---3---3---3------------------
E-3---3---3---3---3---3---3---3---3---3---3---3---3---3---3---3--
Though I know my death will not come til I breathe all the air out my lungs;
'Til my final tune is sung.

E------------------------------------------------------------------------------------------------------------
B------------------------------------------------------------------------------------------------------------
B-----------------------------------------------------------------------2------------------------------------
D---2---2---2---0---0---0---0---0---0---0---0---2---2---2---2---2---2-------0---0---0---0---0---0---0---0---0
A-3---3---3---3-------------------------------2---2---2---2---2---2------------------------------------------
E-3---3---3---3---3---3---3---3---3---2---2---0---0---0---0---0---0---2---2---3---3---3---3---3---3---3---3--
That all is fleeting. Yeah, but all is good.

E--------------------------------------------------------------------------------
B--------------------------------------------------------------------------------
G-----------------------------------------------------------------------0--------
D---0---0---0---0---2---2---2---2---2---0---0---0---0---0---0---0---0-------0---0
A-----------------2---2---2---2---2---2------------------------------------------
E-3---3---2---2---0---0---0---0---0---0---2---2---3---3---3---3---3---3---3---3--
And my love is my whole being... And I share what I could.


Chorus:
E----------------------------------------------------------------
B----------------------------------------------------------------
G----------------------------------------------------------------
D---2---2---2---0---2---2---4---0---0---0---0---0---2---2---2---2
A-3---3---3---3---2---2---5---5-------------------3---3---3---3--
E-3---3---3---3---0---0-----------3---3---3---3---3---3---3---3--
But if you get a little love, you can get a little love of your own. Don't break his heart.

E--------------------------------------------------------------------------------
B-----------------------------------------------------------------------1--------
G-------------------------------------------------------------------0-------0----
D---2---2---2---0---2---2---4---0---0---0---0---0---2---2---2---2---------------0
A-3---3---3---3---2---2---5---5-------------------3---3---3---3------------------
E-3---3---3---3---0---0-----------3---3---3---3---3---3---3---3---3---3---3---3--
Yeah, if you get a little love, you can get a little love of your own. Don't break his heart.


Post-Chorus:
E----------------------------------------------------------------
B----------------------------------------------------------------
G----------------------------------------------------------------
D---2---2---2---2---2---2---2---0---0---0---0---0---4---4---4---4
A-2---2---2---2---3---3---3---3-------------------5---5---5---5--
E-0---0---0---0---3---3---3---3----3---3---3---3------------------

E--------------------------------------------------------------------------------
B-----------------------------------------------------------------------3--------
G-------------------------------------------------------0-------------------0----
D---2---2---2---2---2---2---2---0---0---0---0---0---4-------4---4---4-----------4
A-2---2---2---2---3---3---3---3-------------------5---5---5---5---5---5---5---5--
E-0---0---0---0---3---3---3---3---3---3---3---3----------------------------------


Verse 2:
E----------------------------------------------------------------
B----------------------------------------------------------------
G----------------------------------------------------------------
D---2---2---2---0---0---0---0---0---2---2---2---0---0---0---0---0
A-3---3---3---3-------------------3---3---3---3------------------
E-3---3---3---3---3---3---3---3---3---3---3---3---3---3---3---3--
Well my heart is bigger than the Earth. And though life is what gave it love first;

E------------------------------------------------------------------------------------------------------------
B------------------------------------------------------------------------------------------------------------
B------------------------------------------------------------------------------------------------------------
D---2---2---2---0---0---0---0---0---0---0---0---2---2---2---2---2---2---0---0---0---0---0---0---0---0---0---0
A-3---3---3---3-------------------------------2---2---2---2---2---2------------------------------------------
E-3---3---3---3---3---3---3---3---3---2---2---0---0---0---0---0---0---2---2---3---3---3---3---3---3---3---3--
Oh well life is not all that it's worth cause life is fleeting. Yeah but I love you.

E--------------------------------------------------------------------------------
B--------------------------------------------------------------------------------
G-----------------------------------------------------------------------0--------
D---0---0---0---0---2---2---2---2---2---0---0---0---0---0---0---0---0-------0---0
A-----------------2---2---2---2---2---2------------------------------------------
E-3---3---2---2---0---0---0---0---0---0---2---2---3---3---3---3---3---3---3---3--
And my love surrounds you like an ether in everything that you do.


Chorus:
E----------------------------------------------------------------
B----------------------------------------------------------------
G----------------------------------------------------------------
D---2---2---2---0---2---2---4---0---0---0---0---0---2---2---2---2
A-3---3---3---3---2---2---5---5-------------------3---3---3---3--
E-3---3---3---3---0---0-----------3---3---3---3---3---3---3---3--
But if you get a little love, you can get a little love of your own. Don't break his heart.

E----------------------------------------------------------------
B----------------------------------------------------------------
G----------------------------------------------------------------
D---2---2---2---0---2---2---4---0---0---0---0---0---2---2---2---2
A-3---3---3---3---2---2---5---5-------------------3---3---3---3--
E-3---3---3---3---0---0-----------3---3---3---3---3---3---3---3--
Yeah, if you get a little love, you can get a little love of your own. Don't break his heart.

E----------------------------------------------------------------
B----------------------------------------------------------------
G----------------------------------------------------------------
D---2---2---2---0---2---2---4---0---0---0---0---0---2---2---2---2
A-3---3---3---3---2---2---5---5-------------------3---3---3---3--
E-3---3---3---3---0---0-----------3---3---3---3---3---3---3---3--
Yeah, if you get a little love, you can get a little love of your own. Don't break his heart.

E--------------------------------------------------
B--------------------------------------------------
G--------------------------------------------------
D-2-----------------------4-----------------------2
A-3---------------2-------5-----------------------3
E-3---------------0---------------3---------------3
Yeah, if you get a little love, you can get a little love of your own. Don't break his heart.


Post-Chorus:
E----------------------------------------------------------------
B----------------------------------------------------------------
G----------------------------------------------------------------
D---2---2---2---2---2---2---2---0---0---0---0---0---4---4---4---4
A-2---2---2---2---3---3---3---3-------------------5---5---5---5--
E-0---0---0---0---3---3---3---3----3---3---3---3-----------------

E--------------------------------------------------------------------------------
B-----------------------------------------------------------------------3--------
G-------------------------------------------------------0-------------------0----
D---2---2---2---2---2---2---2---0---0---0---0---0---4-------4---4---4-----------4
A-2---2---2---2---3---3---3---3-------------------5---5---5---5---5---5---5---5--
E-0---0---0---0---3---3---3---3---3---3---3---3----------------------------------



Well if you are (what you love)
And you do (what you love)
I will always be the sun and moon to you.
And if you share (with your heart)
Yeah, you give (with your heart)
What you share with the world is what it keeps of you.



Questions?
Email at cory.a.roesch@gmail.com

            
            
Suggest correction
Creating personal tab
Creating personal tab
You can edit any tab online and save it as your Personal.

You can edit, replace or remove any tab part or add personal notes – all changes will be seen only by you.

Personal tabs can be accessed anytime from any device, even offline.
Learn more »
Give kudos to tab author, rate the tab!
1 2 3 4 5
comments
print report bad tab
guest
You may want to rate the tab now too:
select rating
Wanna post a correction for this tab? Suggest correction